» » »

Madball - Set It Off Tabs

Artists:  A B C D E F G H I J K L M N O P Q R S T U V W X Y Z # 

Set It Off Tabs

(ver. 1) Click to play this song!
Madball
 Rating:
4/5 (6 votes)


 Set It Off lessons Tabs too difficult? Try these video lessons and learn fast
 
                Band: Madball
Tuning: Half step down (I think?)

-----------------------------------------------

   INTRO        0:00-0:55
   INTRO RIFF   0:55-1:14 (4 times)
   VERSE        1:14-1:33 (4 times)*
   CHORUS       1:34-1:53 (2 times)
   INTRO RIFF   1:54-2:03 (2 times)
   VERSE        2:04-2:21 (4 times)*
   CHORUS       2:22-2:43 (2 times)*
   BREAKDOWN    2:44-2:57 (3 times)
   BREAK-END    2:57-3:00 (once)
   SET IT OFF   3:00-3:18
   ENDING       3:18-3:25

   *: read below the chorus part tab 

-----------------------------------------------

   INTRO B 
   e|-------------------------------------|
   B|-------------------------------------|
   G|-------------------------------------|
   D|-4/5----4/5---2------4/5----4/5---8--| x4
   A|-4/5-0--4/5-0-2------4/5-0--4/5-0-8--|
   E|-2/3-0--2/3-0-0------2/3-0--2/3-0-6--|          
          .      .            .      .

   VERSE
   e|----------------------------------------------------|
   B|----------------------------------------------------|
   G|----------------------------------------------------|
   D|------9----10--9---9--------------------------------| x4
   A|------7----8---7---7--------7----8----5----7---5\3--|
   E|-0000---00---0---00-----000-5-00-6-00-3-00-5-0-3\1--| 
      ....   ..   .   ..     ... . .. . .. . .. . . . .

                                                   end with..
      *play 4x times,                    D|--9--|  A|--7-8-5/7\5-3--|
       2nd and 4th times after the last  A|--7--|  E|--5-6-3/5\3-1--|
                                         E|-----|  

   CHORUS                                          
   e|--------------------------------------------------------------|
   B|--------------------------------------------------------------|
   G|--------------------------------------------------------------|
   D|-22--22--22--9/5-8---8---------22--22--22--9\5-8---8---3-3-3--| x2
   A|-22--22--22--9/5-8-x-8---------22--22--22--9\5-8-x-8---3-3-3--|
   E|-00--00--00--7/3-6-x-6--\\\\\\-00--00--00--7\3-6-x-6---1-1-1--|
                             slide  ^^                      . . .
                             then hit^


      *2nd time playing chorus  D|--3--|        D|--9\5-8--9/5-8---8--|
      instead of playing these  A|--3--| play:  A|--9\5-8--9/5-8-x-8--| 
                                E|--1--|        E|--7\3-6--7/3-6-x-6--|
                                    .

   BREAKDOWN
   e|-------------------------------------|
   B|-------------------------------------|
   G|-------------------------------------|
   D|-----2-------2-------2-----5---8-----| x3
   A|-----2-------2-------2-----5---8-----|
   E|-00000-0000000-0000000-00003-006-00--|
      ..... ....... ....... ..... ... .. 

   BREAK-END
   e|---------------------|
   B|---------------------|
   G|---------------------|
   D|-----2-------2---2~--| x1
   A|-----2-------2---2~--|
   E|-00000-0000000-000~--|
      ..... ....... ...

   SET IT OFF
   e|-----------------------------------------|
   B|-----------------------------------------|
   G|-------------/99999------------7/99999---|
   D|-x-x-5-x-x-8-/99999--x-x-8-x-x-5/99999---| x4
   A|-x-x-5-x-x-8-/77777--x-x-8-x-x-5/77777---|
   E|-x-x-3-x-x-6---------x-x-6-x-x-----------|

   ENDING
   e|----------------------------------------------|
   B|----------------------------------------------|
   G|----------------------------------------------|
   D|-5--8--2-------5/8\3-2------------------------| x1
   A|-5--8--2-------5/8\3-2------------------------|
   E|-3--6--0-------3/6\1-0------------------------|

   mute all strings after the last chord

   feel free to correct me at
   add to msn or email
            
Submit corrections



        Set It Off lessons Hard to play? Try these video lessons and learn fast Set It Off lessons
        
↑ Back to top | Tablatures and chords for acoustic guitar and electric guitar, ukulele, drums are parodies/interpretations of the original songs. You may use it for private study, scholarship, research or language learning purposes only