» » »

Macy Gray - I Try Bass

Artists:  A B C D E F G H I J K L M N O P Q R S T U V W X Y Z # 

I Try Bass

(ver. 1) Click to play this song!
Macy Gray
 Rating:
4/5 (22 votes)

 I Try lessons Tabs too difficult? Try these video lessons and learn fast
 
                Tuning:STANDARD

VERSE:
G|---------------|---------------|---------------|---------------|                  
D|---------------|--7----7-707---|---------------|---------------|
A|5------5-505---|--------0------|7------7-7--0-7|---------------|
E|------0-0-----0|55----5------5-|--0---0-0------|---------------|

G|---------------|---------------|---------------|---------------|
D|---------------|--7-----7-707--|---------------|---------------|
A|5------5-505---|---------0-----|--7----7-707---|--7-----7-5----|
E|------0-0-----0|5------5-----5-|0-----0-0------|0------0---7-5-|

PRE-CHORUS:
G|---------------|---------------|---------------|---------------|
D|---------------|---------------|---------------|--7------------|
A|---------------|---------------|--7----7-7----7|---------------|                   
E|3-----0303---30|2----0202----02|0-----0-0----0-|5-----0505-05h7|

CHORUS:
G|---------------|---------------|---------------|---------------|
D|---------------|--7------------|---------------|---------------|
A|5------5-505---|---------------|--7----7-7-7---|---------------|
E|------0-0-----0|5------05-0505-|0-----0-0-0--7/|3-3-035---05057|

G|---------------|---------------|---------------|---------------|
D|---------------|--7------------|---------------|---------------|
A|5------5-505---|---------------|--7----7-7-7---|---------------|
E|------0-0-----0|5------05-0505-|0-----0-0-0--7/|3-3-035---05050|

             
Play it twice and then:


BRIDGE:
G|---------------|---------------|---------------|---------------|
D|---------------|--7------------|---------------|---------------|
A|8------8-8---8-|---------------|8------8-8---8-|7------7-7---7-|
E|------0-0---0--|5------05-0505-|------0-0---0--|------0-0---0--|

G|---------------|---------------|---------------|---------------|
D|---------------|---------------|---------------|---------------|
A|---------------|---------------|7------7-707---|7------7-7-7---|
E|8-----0808--08-|7-----0707--07-|------0-0------|------0-0-0----|

PRE-CHORUS:
G|---------------|---------------|---------------|---------------|
D|---------------|---------------|---------------|7-7---78-8---8-|
A|---------------|---------------|--7----7-7----7|---------------|                   
E|3-----0303---30|2----0202----02|0-----0-0----0-|-----0-----0---|

CHORUS:
G|---------------|---------------|---------------|---------------|
D|---------------|--8------------|---------------|---------------|
A|6------6-6----6|---------------|8------8-8-8---|---------------|
E|------0-0----0-|6------06-0606-|------0-0-0--8/|4-4-046---06068|

G|---------------|---------------|---------------|---------------|
D|---------------|--8------------|---------------|---------------|
A|6------6-6----6|---------------|8------8-8-8---|---------------|
E|------0-0----0-|6------06-0606-|------0-0-0--8/|4-4-046---06060|            
Submit corrections


        I Try lessons Hard to play? Try these video lessons and learn fast I Try lessons
        
↑ Back to top | Tablatures and chords for acoustic guitar and electric guitar, ukulele, drums are parodies/interpretations of the original songs. You may use it for private study, scholarship, research or language learning purposes only