» » »

Machine Head - Now I Lay Thee Down Tabs

Artists:  A B C D E F G H I J K L M N O P Q R S T U V W X Y Z # 

Now I Lay Thee Down Tabs

(ver. 1) Click to play this song!
Machine Head
 Rating:
4/5 (4 votes)


 Now I Lay Thee Down lessons Tabs too difficult? Try these video lessons and learn fast
 
                ----------------------------------------------------------------------------
----------------------------------------------------------------------------

Tuning:drop b

intro
|---(17)--||---18---------17---------15---------13--12--13-----------------|
|-(14)----||-----15-15-15---15-15-15---15-15-15---15--15-------------------|
|---------||---------------------------------------------------------------|
|---------||---------------------------------------------------------------|
|---------||---------------------------------------------------------------|
|---------||---------------------------------------------------------------|
                                                                 x4 
    fill 1   
|------------|
|------------|
|--5/8-8-8-8-|
|------------|
|--3/6-6-6-6-|
|-0----------|

main riff
|--------------------------------------------------------------------------|
|--------------------------------------------------------------------------|
|--------------------------------------------------------------------------|
|--------------------------------------------------------------------------|
|--------------------------------------------------------------------------|
|8-0-0-0-0-7-0-0-0-0-5-0-0-0-0-3-0-2-0-3-0-8-0-0-0-0-7-0-0-0-0-5-0-0-0-----|
                                         play once then, fill 1, then repeat

fill 2  
|------------------------------------|
|------------------------------------|
|-----8-8-8---8-8-8---8-8-8---777777-|
|-----8-8-8---8-8-8---8-8-8---777777-|
|-----6-6-6---6-6-6---6-6-6---555555-|
|-0-0-------0-------0-------0--------|

verse riff
|--------------------------------------------------------------------------|
|--------------------------------------------------------------------------|
|--------------------------------------------------------------------------|
|--------------------------------------------------------------------------|
|--------------------------------------------------------------------4/6666|
|-8-0-0-0-0-7-0-0-0-0-5-0-0-0-0-3-0-2-0-3-8-0-0-0-0 7-0-0-0-0-5-0-0-0------|
pm- - - - - - - - - - - - - - - - - - - - - - - - - - - - - - - - - - - - -
                                                             x2 then fill 2
chorus 
|--------------------------------------------------------------------------|
|--------------------------------------------------------------------------|
|--------------------------------------------------------------------------|
|-8--8-7-------------------------------------------------------------------|
|-8--8-7-------------------------------------------------------------------|
|-8--8-7-8-0-0-0-0-7-0-0-0-0-5-0-0-0-0-3-0-2-0-3---------------------------|
                                                             x2 then fill 2
 repeat all of the above except intro 

bridge
|--------------------------------------------------------|
|--------------------------------------------------------|
|--------------------------------------------------------|
|--------------------------------------------------------|
|--------------------------------------------------------|
|-7-2-9-2-10-2-12-2-10-2-12-2-14-3-12-3-10-3-12-3-10-3-5-|
  T   T   T    T    T    T    T    T    T    T    T    T
                                                         x8

|--------------------------------------------------------------------------|
|--------------------------------------------------------------------------|
|--------------------------------------------------------------------------|
|--------8-8-8-----------------------------8-8-8---------------------------|
|--------6-6-6---------5-6-8-6-5-0---------6-6-6---------5h6-8-8-8-8-------|
|7-0-0-0-------7-0-0-0-------------7-0-0-0-------7-0-0-0-------------------|

bridge part 2
|---------------------------|
|---------------------------|
|---------------------------|
|---------------------------|  
|---------------------------|
|-3-1-0-3-1-0-4-3-1-4-3-1---|

                        x4

|-------------------------|------------------------------------------------|
|-------------------------|------------------------------------------------|
|-------------------------|-------------22-20-19-22-20-19-23-22-20-22-20-19|
|-4-3-1-3-1-0-3-1-0-3-1-0-|-4-3-1-3-1-0------------------------------------|
|-------------------------|------------------------------------------------|
|-------------------------|------------------------------------------------|


|---------------------------------------------------|
|---------------------------------------------------| 
|---------------------------------------------------|
|---------5-----------5-----------5-----------5-6---|
|---------5-----------5-----------5-----------5-6---|
|-0-0-0-0-5---0-0-0-0-5---0-0-0-0-5---0-0-0-0-5-6---|
                                                   x 2 then intro riff
interlude 

|--------------------------------------------------------------------------|
|--------------------------------------------------------------------------|
|-14-10----14-10----14-10----14-10----15-10----14p10----13-10----13-10-----|
|-------12-------12-------12-------12-------12-------12-------10-------10--|
|--------------------------------------------------------------------------|
|--------------------------------------------------------------------------|

solo 1
|--------------------------------------------------------------------------|
|-13*bu-13*bu-10h13p10----10h13p10-----------------------------------------|
|----------------------12-----------12-10bu-12p10----10p0------------------|
|-------------------------------------------------12------12p0-10p0-10*~~~-|
|--------------------------------------------------------------------------|
|--------------------------------------------------------------------------|

iterlude

solo 2
|-15trem-13trem-12trem-13trem-15trem-13trem-12trem-12tr13-|
|---------------------------------------------------------|
|---------------------------------------------------------|
|---------------------------------------------------------|
|---------------------------------------------------------|
|---------------------------------------------------------|

interlude

solo 3
|-----------------------------------------------------------------|
|-----------------------------------------------------------------|
|-9h10p9h10p9----9h10p9h10/12\10-9h10p9h10p9----10----------------|
|-------------12-----------------------------12----12p10p9--------|
|----------------------------------------------------------12p10--|
|-----------------------------------------------------------------|

|-----------------------------------|
|----------------10-----------------|
|-9h10p9h10p9-------12p10p9---------|
|-------------12--------------12p10-|
|-----------------------------------|
|-----------------------------------|

sorry thats all i know so far, should be finished pretty soon

| /   slide up
| \   slide down
| h   hammer-on
| p   pull-off
| ~   vibrato
| +   harmonic
| x   Mute note
| pm  Palm mute
| T   tap
|bu   bend up
|bd   bend down
|*    pinch harmonic
|trem tremolo picking
|tr   trill with next note
============================================================================
            
Submit corrections



        Now I Lay Thee Down lessons Hard to play? Try these video lessons and learn fast Now I Lay Thee Down lessons
        
↑ Back to top | Tablatures and chords for acoustic guitar and electric guitar, ukulele, drums are parodies/interpretations of the original songs. You may use it for private study, scholarship, research or language learning purposes only