» » »

Machine Head - Five Tabs

Artists:  A B C D E F G H I J K L M N O P Q R S T U V W X Y Z # 

Five Tabs

(ver. 2) Click to play this song!
Machine Head
 Rating:
4/5 (4 votes)


 Five lessons Tabs too difficult? Try these video lessons and learn fast
 
                Tuning (from low to high): B F# B E G# C# 

well, for ages i looked for a tab for this song and/or for somebody to tab it. but it never 

happened.. so i decided to use my "skillz" (not) 2 try and do it myself.
If u find its not perfect, i hope it points you in the right direction :)

intro and verse.
|------------------------------------------------------------------------|
|---------------------------------------------------------slow-bend^-----|
|---777777777777777777------141414141414-121212121212-14141414141414-----|
|------------------------------------------------------------------------|
|------------------------------------------------------------------------|
|------------------------------------------------------------------------|
 they are 12's and 14's not 1's 2's and 4's

cool part:
|------------------------------|
|------------------------------|
|---7-----------3/(8)-8\(3)----| (you may want 2 play the power chords as octaves)
|------3--1--4-----------------|
|---5--3--1--4--1/(6)-6\(1)----|
|------3--1--4-----------------|

intro to interlude (and outro of interlude)
|-----------------------------|
|-----------------------------|
|-----------------------------|
|---0-0-3-3-1-1-1-1-0-1-3-4---|
|---0-0-3-3-1-1-1-1-0-1-3-4---|
|---0-0-3-3-1-1-1-1-0-1-3-4---|

interlude
|------------------------------------------------|
|------------------------------------------------|
|------------------------------------------10----|
|---0-12-10-0-13-0-12-10-0-13-0-0-10-12-13-------|
|------------------------------------------------|
|------------------------------------------------|


|------------------------------|------------------------|
|------------------------------|------------------------|
|------------------------------|-----all harmonics------|
|--xxx--xxx--xxx-xxx-xxxxx-----|------------------------|
|--xxx--xxx--xxx-xxx-xxxxx-----|------------------------|
|--xxx--xxx--xxx-xxx-xxxxx-----|----3*-3*-3*-3*-3*-3*---|



thats about it, appart from the little clean part, but i couldnt be stuffed working it out.
problems, questions, comments, corrections and hate mail all accepted. 
            
Submit corrections



        Five lessons Hard to play? Try these video lessons and learn fast Five lessons
        
↑ Back to top | Tablatures and chords for acoustic guitar and electric guitar, ukulele, drums are parodies/interpretations of the original songs. You may use it for private study, scholarship, research or language learning purposes only