» » »

Machine Head - Davidian Bass

Artists:  A B C D E F G H I J K L M N O P Q R S T U V W X Y Z # 

Davidian Bass

(ver. 1) Click to play this song!
Machine Head
 Rating:
4/5 (4 votes)


 Davidian lessons Tabs too difficult? Try these video lessons and learn fast
 
                ----------------------------------------------------------------------------
			Davidian - Machine Head
----------------------------------------------------------------------------


Tuning: Drop C#

F#|--------------------------------------------------------------------------|
C#|--------------------------------------------------------------------------|
G#|--------------------------------------------------------------------------|
C#|-0------0-0------0------0-0------0------0-0------0------0-0--1-3-4--------|

F#|--------------------------------------------------------------------------|
C#|--------------------------------------------------------------------------|
G#|--------------------------------------------------------------------------|
C#|-0-0--1/4-3------0--1--0-0-1-3-4-0--1--0-0-1/4-3-0--1--0-0-1-3-4----------|

F#|-------------------------------------------------------------------------|
C#|-------------------------------------------------------------------------|
G#|-------------------------------------------------------------------------|
C#|-0--1--0-0-1/4-3-0--1--0-0-1-3-4-0--1--0-0-1/4-3-0--1--0-0-1-3-4---------|

F#|-------------------------------------------------------------------------|
C#|-----------------------------0---/12-------------------------------------|
G#|-------------------------------------------------------------------------|
C#|-0-0-1-3-4--0-0-1/4-3-0--------------------------------------------------|

Rest for 4 bars and come in with Robs growl
F#|---------------------------x11------------------|
C#|------------------------------------------------|
G#|------------5555---------------4----------------|
C#|-0-0-1-0-0-0-----6-0-3-4-------4---------4/12\--|

F#|----------------------------------------------------|
C#|----------------------------------------------------|
G#|----------------------------------------------------|
C#|-0-3-0-6-5-0-3-5------0-1--0-3-0-6-5-0-3-5--1--3--1-|x2

F#!----------------------------------------------------|
C#!----------------------------------------------------|
G#|----------------------------------------------------|
C#|-0-3-0-6-5-0-3-5------0-1--0-3-0-6-5-0-3------------|

verse riff x3 then
F#|---------------------|
C#|---------------------|
G#|-------------5-------|
C#|-0-0-1-0-0-0-0-------|

F#|---------------------------x3-------------------|
C#|------------------------------------------------|
G#|------------5555---------------4----------------|
C#|-0-0-1-0-0-0-----6-0-3-4-------4---------4/12\--|

F#|----------------------------------------------------|
C#|----------------------------------------------------|
G#|----------------------------------------------------|
C#|-0-3-0-6-5-0-3-5------0-1--0-3-0-6-5-0-3-5--1--3--1-|x2

F#!----------------------------------------------------|
C#!----------------------------------------------------|
G#|----------------------------------------------------|
C#|-0-3-0-6-5-0-3-5------0-1--0-3-0-6-5-0-3-5----------|

then solo               x8                        x4
F#|----------------------------------------------------|
C#|---------------------------0-3-1-4-3-6-4-7-6-7-8----|
G#|----------------------------------------------------|
C#|-0-0-1-0-0--0-0-6-0-3-4-----------------------------|
                                               x4
F#|----------------------------------------------------|
C#|-00003333111144443333666644447777666677778888-------|
G#|----------------------------------------------------|
C#|----------------------------------------------------|

Outro-repeat and fade
F#|----------------------------------------------------------------|
C#|----------------------------------------------------------------|
G#|555-5-5-555-5-5-555-5-5-555-5-5-555-5-5-555-5-5-888-999-666-888-|
C#|----------------------------------------------------------------|

F#|--------------------------------------------------------------------|
C#|--------------------------------------------------------------------|
G#|555-5-5-555-5-5-555-5-5-555-5-5-555-5-5-555-5-5-888-999-666-888-666-|
C#|--------------------------------------------------------------------|

Just my interpretation of how this would be played on bass
hope it helps

| /  slide up
| \  slide down
| h  hammer-on
| p  pull-off
| ~  vibrato
| +  harmonic
| x  Mute note
===============================================================================
            
Submit corrections



        Davidian lessons Hard to play? Try these video lessons and learn fast Davidian lessons
        
↑ Back to top | Tablatures and chords for acoustic guitar and electric guitar, ukulele, drums are parodies/interpretations of the original songs. You may use it for private study, scholarship, research or language learning purposes only