» » »

Machine Head - Davidian Tabs

Artists:  A B C D E F G H I J K L M N O P Q R S T U V W X Y Z # 

Davidian Tabs

(ver. 3) Click to play this song!
Machine Head
 Rating:
4/5 (4 votes)
                Note              : This song is amazing. I only have the intro down so far, n i got half the rest of it done too, but i wont put that up till its complete. I've done this tab as i was taught it n it sounds good to me. If its not, leave corrections and i'll sort it...or do your own. Ive put the structure at the bottom. Follow it...its easy. See ya.

This song is in Drop D [D A D G B E]. 5* means its played with harmonics...simple. And obviously the * on the p.m line are under the parts that have to b palm muted. got it? good.

[riff 1]
e|-----------------------------------------------|
B|-----------------------------------------------|
G|-----------------------------------------------|
D|-0----5*-----1------0-0----5*-----1--3--4------|
A|-0-------5*--1------0-0-------5*--1--3--4------|
D|-0-----------1------0-0-----------1--3--4------|
p.m                   * *

[riff 2]
e|-----------------------------------------------|
B|-----------------------------------------------|
G|-----------------------------------------------|
D|-0----5*-----1------0-0----5*-----1--4--3------|
A|-0-------5*--1------0-0-------5*--1--4--3------|
D|-0-----------1------0-0-----------1--4--3------|
p.m                   * *

[riff 3a]                  [riff 3b]
e|------------------------|--------------------------------|
B|------------------------|--------------------------------|
G|------------------------|--------------------------------|
D|-0-0----5*-----1--4--3--|--0-0----5*-----1--4--3--0 ~----|
A|-0-0-------5*--1--4--3--|--0-0-------5*--1--4--3--0 ~----|
D|-0-0-----------1--4--3--|--0-0-----------1--4--3--0 ~----|
p.m* *                       * *                     let ring

[riff 4]
e|------------------------------------|
B|------------------------------------|
G|------------------------------------|
D|-0-----0h1p0----0-0----1--6-5-3-4---| repeat several times, havent worked out how 
A|-0-----0h1p0----0-0----1--6-5-3-4---| many.listen to the song and you'll get it
D|-0-----0h1p0----0-0----1--6-5-3-4---|

Structure

riff 1
riff 2
riff 1
riff 1
riff 3a
riff 1
riff 2
riff 1
riff 2
riff 1
riff 2
riff 1
riff 3a
riff 3b
riff 4

thats as far as i am with it. more to come...if i can be bothered.
            
Submit corrections

↑ Back to top | Tablatures and chords for acoustic guitar and electric guitar, ukulele, drums are parodies/interpretations of the original songs. You may use it for private study, scholarship, research or language learning purposes only