» » »

Machine Gun Kelly - Bad Motherfucker Tabs

Artists:  A B C D E F G H I J K L M N O P Q R S T U V W X Y Z # 

Bad Motherfucker Tabs

(ver. 1) Click to play this song!
Machine Gun Kelly
 Rating:
3/5 (22 votes)

 Bad Motherfucker  lessons Tabs too difficult? Try these video lessons and learn fast
 
                Intro (Kid Rock)

e|-----------------------------------------------------------|
B|-----------------------------------------------------------|
G|-----------------------------------------------------------|
D|-----------------------------------------------------------|
A|----(6)/8--8-----------------------------------------------|
C|-0------------10/12---12----(12)-10/12---12----x10-11-12---|

e|------------------------------------------------------------|
B|------------------------------------------------------------|
G|------------------------------------------------------------|
D|------------------------------------------------------------|
A|----(6)/8--8------------------------------------8--6b---3~--|
C|-0------------10/12---12----(12)-10/12---12---0--0----------|

e|-----------------------------------------------------------|
B|-----------------------------------------------------------|
G|-----------------------------------------------------------|
D|-----------------------------------------------------------|
A|----(6)/8--8-----------------------------------------------|
C|-0------------10/12---12----(12)-10/12---12----x10-11-12---|

e|------------------------------------------------------------|
B|------------------------------------------------------------|
G|------------------------------------------------------------|
D|------------------------------------------------------------|
A|----(6)/8--8------------------------------------8--6b---3~--|
C|-0------------10/12---12----(12)-10/12---12---0--0----------|

e|-----------------------------------------------------------|
B|-----------------------------------------------------------|
G|-----------------------------------------------------------|
D|-----------------------------------------------------------|
A|----(6)/8--8-----------------------------------------------|
C|-0------------10/12---12----(12)-10/12---12----x10-11-12---|

e|------------------------------------------------------------|
B|------------------------------------------------------------|
G|------------------------------------------------------------|
D|------------------------------------------------------------|
A|----(6)/8--8------------------------------------8--6b---3~--|
C|-0------------10/12---12----(12)-10/12---12---0--0----------|

Break

Verse (MGK)

e|-----------------------------------------------------------|
B|-----------------------------------------------------------|
G|-----------------------------------------------------------|
D|-----------------------------------------------------------|
A|----(6)/8--8-----------------------------------------------|
C|-0------------10/12---12----(12)-10/12---12----x10-11-12---|

e|------------------------------------------------------------|
B|------------------------------------------------------------|
G|------------------------------------------------------------|
D|------------------------------------------------------------|
A|----(6)/8--8------------------------------------8--6b---3~--|
C|-0------------10/12---12----(12)-10/12---12---0--0----------|

e|-----------------------------------------------------------|
B|-----------------------------------------------------------|
G|-----------------------------------------------------------|
D|-----------------------------------------------------------|
A|----(6)/8--8-----------------------------------------------|
C|-0------------10/12---12----(12)-10/12---12----x10-11-12---|

e|------------------------------------------------------------|
B|------------------------------------------------------------|
G|------------------------------------------------------------|
D|------------------------------------------------------------|
A|----(6)/8--8------------------------------------8--6b---3~--|
C|-0------------10/12---12----(12)-10/12---12---0--0----------|

e|-----------------------------------------------------------|
B|-----------------------------------------------------------|
G|-----------------------------------------------------------|
D|-----------------------------------------------------------|
A|----(6)/8--8-----------------------------------------------|
C|-0------------10/12---12----(12)-10/12---12----x10-11-12---|

e|------------------------------------------------------------|
B|------------------------------------------------------------|
G|------------------------------------------------------------|
D|------------------------------------------------------------|
A|----(6)/8--8------------------------------------8--6b---3~--|
C|-0------------10/12---12----(12)-10/12---12---0--0----------|

e|-----------------------------------------------------------|
B|-----------------------------------------------------------|
G|-----------------------------------------------------------|
D|-----------------------------------------------------------|
A|----(6)/8--8-----------------------------------------------|
C|-0------------10/12---12----(12)-10/12---12----x10-11-12---|

e|------------------------------------------------------------|
B|------------------------------------------------------------|
G|------------------------------------------------------------|
D|------------------------------------------------------------|
A|----(6)/8--8------------------------------------8--6b---3~--|
C|-0------------10/12---12----(12)-10/12---12---0--0----------|

Wah On

e|-----------------------------------------------------------|
B|-----------------------------------------------------------|
G|-----------------------------------------------------------|
D|-----------------------------------------------------------|
A|----(6)/8--8-----------------------------------------------|
C|-0------------10/12---12----(12)-10/12---12----x10-11-12---|

e|------------------------------------------------------------|
B|------------------------------------------------------------|
G|------------------------------------------------------------|
D|------------------------------------------------------------|
A|----(6)/8--8------------------------------------8--6b---3~--|
C|-0------------10/12---12----(12)-10/12---12---0--0----------|

Wah off

Chorus

e|-----------------------------------------------------------|
B|-----------------------------------------------------------|
G|-----------------------------------------------------------|
D|-----------------------------------------------------------|
A|----(6)/8--8-----------------------------------------------|
C|-0------------10/12---12----(12)-10/12---12----x10-11-12---|

e|------------------------------------------------------------|
B|------------------------------------------------------------|
G|------------------------------------------------------------|
D|------------------------------------------------------------|
A|----(6)/8--8------------------------------------8--6b---3~--|
C|-0------------10/12---12----(12)-10/12---12---0--0----------|

e|-----------------------------------------------------------|
B|-----------------------------------------------------------|
G|-----------------------------------------------------------|
D|-----------------------------------------------------------|
A|----(6)/8--8-----------------------------------------------|
C|-0------------10/12---12----(12)-10/12---12----x10-11-12---|

e|------------------------------------------------------------|
B|------------------------------------------------------------|
G|------------------------------------------------------------|
D|------------------------------------------------------------|
A|----(6)/8--8------------------------------------8--6b---3~--|
C|-0------------10/12---12----(12)-10/12---12---0--0----------|

e|-----------------------------------------------------------|
B|-----------------------------------------------------------|
G|-----------------------------------------------------------|
D|-----------------------------------------------------------|
A|----(6)/8--8-----------------------------------------------|
C|-0------------10/12---12----(12)-10/12---12----x10-11-12---|

e|------------------------------------------------------------|
B|------------------------------------------------------------|
G|------------------------------------------------------------|
D|------------------------------------------------------------|
A|----(6)/8--8------------------------------------8--6b---3~--|
C|-0------------10/12---12----(12)-10/12---12---0--0----------|

Break

Verse

e|-----------------------------------------------------------|
B|-----------------------------------------------------------|
G|-----------------------------------------------------------|
D|-----------------------------------------------------------|
A|----(6)/8--8-----------------------------------------------|
C|-0------------10/12---12----(12)-10/12---12----x10-11-12---|

e|------------------------------------------------------------|
B|------------------------------------------------------------|
G|------------------------------------------------------------|
D|------------------------------------------------------------|
A|----(6)/8--8------------------------------------8--6b---3~--|
C|-0------------10/12---12----(12)-10/12---12---0--0----------|

e|-----------------------------------------------------------|
B|-----------------------------------------------------------|
G|-----------------------------------------------------------|
D|-----------------------------------------------------------|
A|----(6)/8--8-----------------------------------------------|
C|-0------------10/12---12----(12)-10/12---12----x10-11-12---|

e|---------------------------------------------------------------------------|
B|-----------------------------------------------10p-h8-10-------------------|
G|-----------------------------------------------10p-h8-10-(8)-10-8-10-------|
D|---------------------------------------------------------------------------|
A|---------------------------------------------------------------------------|
C|---------------------------------------------------------------------------|

e|-----------------------------------------------------------|
B|-----------------------------------------------------------|
G|-----------------------------------------------------------|
D|-----------------------------------------------------------|
A|----(6)/8--8-----------------------------------------------|
C|-0------------10/12---12----(12)-10/12---12----x10-11-12---|

e|------------------------------------------------------------|
B|------------------------------------------------------------|
G|------------------------------------------------------------|
D|------------------------------------------------------------|
A|----(6)/8--8------------------------------------8--6b---3~--|
C|-0------------10/12---12----(12)-10/12---12---0--0----------|

e|-----------------------------------------------------------|
B|-----------------------------------------------------------|
G|-----------------------------------------------------------|
D|-----------------------------------------------------------|
A|----(6)/8--8-----------------------------------------------|
C|-0------------10/12---12----(12)-10/12---12----x10-11-12---|

e|------------------------------------------------------------|
B|------------------------------------------------------------|
G|------------------------------------------------------------|
D|------------------------------------------------------------|
A|----(6)/8--8--------------------------------------------3~--|
C|-0------------10/12---12----(12)-10/12---12---0-------------|

e|-----------------------------------------------------------|
B|-----------------------------------------------------------|
G|-----------------------------------------------------------|
D|-----------------------------------------------------------|
A|----(6)/8--8-----------------------------------------------|
C|-0------------10/12---12----(12)-10/12---12----x10-11-12---|

e|------------------------------------------------------------|
B|------------------------------------------------------------|
G|------------------------------------------------------------|
D|------------------------------------------------------------|
A|----(6)/8--8------------------------------------8--6b---3~--|
C|-0------------10/12---12----(12)-10/12---12---0--0----------|

Wah On

e|-----------------------------------------------------------|
B|-----------------------------------------------------------|
G|-----------------------------------------------------------|
D|-----------------------------------------------------------|
A|----(6)/8--8-----------------------------------------------|
C|-0------------10/12---12----(12)-10/12---12----x10-11-12---|

e|-------------------------------------------------|
B|-------------------------------------------------|
G|-------------------------------------------------|
D|-------------------------10-8--------------------|
A|----(6)/8--8------------------10-8---------------|
C|-0------------10/12---12-----------12-10--5-0----|

Wah Off

Chorus

e|-----------------------------------------------------------|
B|-----------------------------------------------------------|
G|-----------------------------------------------------------|
D|-----------------------------------------------------------|
A|----(6)/8--8-----------------------------------------------|
C|-0------------10/12---12----(12)-10/12---12----x10-11-12---|

e|------------------------------------------------------------|
B|------------------------------------------------------------|
G|------------------------------------------------------------|
D|------------------------------------------------------------|
A|----(6)/8--8------------------------------------8--6b---3~--|
C|-0------------10/12---12----(12)-10/12---12---0--0----------|

Break

Solo

e|---------------------------------------------|
B|---------------------------------------------|
G|---/10~-10-----------------------------------|
D|----------8-10-10-x-8-8-x-x-8------8-9-10----|
A|------------------------------10-------------|
C|-0-------------------------------------------|

e|---------------------------------------------|
B|---------------------------------------------|
G|---/10~-10----------------------------8~-----|
D|----------8-10-10-x-8-8-x-x-8------8----10---|
A|------------------------------10--(8)--------|
C|-0-------------------------------------------|

Outro

e|-----------------------------------------------------------|
B|-----------------------------------------------------------|
G|-----------------------------------------------------------|
D|-----------------------------------------------------------|
A|----(6)/8--8-----------------------------------------------|
C|-0------------10/12---12----(12)-10/12---12----x10-11-12---|

e|------------------------------------------------------------|
B|------------------------------------------------------------|
G|------------------------------------------------------------|
D|------------------------------------------------------------|
A|----(6)/8--8------------------------------------8--6b---3~--|
C|-0------------10/12---12----(12)-10/12---12---0--0----------|

e|-----------------------------------------------------------|
B|-----------------------------------------------------------|
G|-----------------------------------------------------------|
D|-----------------------------------------------------------|
A|----(6)/8--8-----------------------------------------------|
C|-0------------10/12---12----(12)-10/12---12----x10-11-12---|

e|------------------------------------------------------------|
B|------------------------------------------------------------|
G|------------------------------------------------------------|
D|------------------------------------------------------------|
A|----(6)/8--8------------------------------------8--6b---3~--|
C|-0------------10/12---12----(12)-10/12---12---0--0----------|

Break

e|---------------------------------------------------------------------------|
B|---------------------------------------------------------------------------|
G|---------------------------------------------------------------------------|
D|---------------------------------------------------------------------------|
A|---------------------------------------------------------------------------|
C|-0-------------------------------------------------------------------------|            
Submit corrections


        Bad Motherfucker  lessons Hard to play? Try these video lessons and learn fast Bad Motherfucker  lessons
        
↑ Back to top | Tablatures and chords for acoustic guitar and electric guitar, ukulele, drums are parodies/interpretations of the original songs. You may use it for private study, scholarship, research or language learning purposes only