Home » M » Mac Dre »

Mac Dre - She Neva Seen Tabs

Artists:  A B C D E F G H I J K L M N O P Q R S T U V W X Y Z # 

She Neva Seen Tabs

(ver. 1) Click to play this song!
Mac Dre
Tuning: Standard with Capo on 7th fret

Section 1
e|-------------------------------------------------------|
B|-------------------------------------------------------|
G|-------------12-11-11-11-11-11-12-11-12-11-11-11-11-7--|
D|--9-11-12-11-------------------------------------------|
A|-------------------------------------------------------|
E|-------------------------------------------------------|

Section 2 
e|--14-12--10-9--10-9--10-9-10/12------------------------|
B|-------------------------------------------------------|
G|-------------------------------------------------------|
D|-------------------------------------------------------|
A|-------------------------------------------------------|
E|-------------------------------------------------------|

Section 3
e|-------------------------------------------------------|
B|-------------------------------------------------------|
G|-----7-11-11-11-7---7---7-11-11-11-11-13-14------------|
D|--11--------------11--11-------------------------------|
A|-------------------------------------------------------|
E|-------------------------------------------------------|

After studying the three guitar sections a bit the song will come together for you. 
The three sections aren't always played in the order I have them numbered and they're usually played more
than once so here is an outline of the whole song using those three sections.

Tuning: Standard with Capo on 7th fret

Intro
e|-------------------------------------------------------|
B|-------------------------------------------------------|
G|-------------12-11-11-11-11-11-12-11-12-11-11-11-11-7--|  X 2
D|--9-11-12-11-------------------------------------------|
A|-------------------------------------------------------|
E|-------------------------------------------------------|

e|--14-12--10-9--10-9--10-9-10-10/12---------------------|
B|-------------------------------------------------------|
G|-------------------------------------------------------|  X 4
D|-------------------------------------------------------| 
A|-------------------------------------------------------|
E|-------------------------------------------------------|


Verse 1 ("It was a hot night in August...")
e|-------------------------------------------------------|
B|-------------------------------------------------------|
G|-----7-11-11-11-7---7---7-11-11-11-11-13-14------------|  X 4
D|--11--------------11--11-------------------------------| 
A|-------------------------------------------------------|
E|-------------------------------------------------------|
        
e|--14-12--10-9--10-9--10-9-10-10/12---------------------|
B|-------------------------------------------------------|
G|-------------------------------------------------------|  X 4
D|-------------------------------------------------------| 
A|-------------------------------------------------------|
E|-------------------------------------------------------|


Bridge 1
e|-------------------------------------------------------|
B|-------------------------------------------------------|
G|-----7-11-11-11-7---7---7-11-11-11-11-13-14------------|  X 2
D|--11--------------11--11-------------------------------| 
A|-------------------------------------------------------|
E|-------------------------------------------------------|


Verse 2 ("Listen you wouldn't wanna miss this...")
e|-------------------------------------------------------|
B|-------------------------------------------------------|
G|-----7-11-11-11-7---7---7-11-11-11-11-13-14------------|  X 2
D|--11--------------11--11-------------------------------| 
A|-------------------------------------------------------|
E|-------------------------------------------------------|
        
e|-------------------------------------------------------|
B|-------------------------------------------------------|
G|-------------12-11-11-11-11-11-12-11-12-11-11-11-11-7--|  X 4
D|--9-11-12-11-------------------------------------------|
A|-------------------------------------------------------|
E|-------------------------------------------------------|
    
e|--14-12--10-9--10-9--10-9-10-10/12---------------------|
B|-------------------------------------------------------|
G|-------------------------------------------------------|  X 2
D|-------------------------------------------------------| 
A|-------------------------------------------------------|
E|-------------------------------------------------------|


Bridge 2
e|-------------------------------------------------------|
B|-------------------------------------------------------|
G|-----7-11-11-11-7---7---7-11-11-11-11-13-14------------|  X 2
D|--11--------------11--11-------------------------------| 
A|-------------------------------------------------------|
E|-------------------------------------------------------|


Verse 3 ("Me and Black Jesus went to Rosaritas...") 
e|--14-12--10-9--10-9--10-9-10-10/12---------------------|
B|-------------------------------------------------------|
G|-------------------------------------------------------|  X 6
D|-------------------------------------------------------| 
A|-------------------------------------------------------|
E|-------------------------------------------------------|
       
e|-------------------------------------------------------|
B|-------------------------------------------------------|
G|-----7-11-11-11-7---7---7-11-11-11-11-13-14------------|  X 2
D|--11--------------11--11-------------------------------| 
A|-------------------------------------------------------|
E|-------------------------------------------------------|


End Chorus ("She only see's me with European keys...")
e|-------------------------------------------------------|
B|-------------------------------------------------------| 
G|-------------12-11-11-11-11-11-12-11-12-11-11-11-11-7--|  X 4
D|--9-11-12-11-------------------------------------------|
A|-------------------------------------------------------|
E|-------------------------------------------------------|


Conclusion/Fade out
e|-------------------------------------------------------|
B|-------------------------------------------------------|
G|-------------12-11-11-11-11-11-12-11-12-11-11-11-11-7--|  X 2
D|--9-11-12-11-------------------------------------------|
A|-------------------------------------------------------|
E|-------------------------------------------------------|

e|--14-12--10-9--10-9--10-9-10-10/12---------------------|
B|-------------------------------------------------------|
G|-------------------------------------------------------|  X 4
D|-------------------------------------------------------| 
A|-------------------------------------------------------|
E|-------------------------------------------------------|

e|-------------------------------------------------------|
B|-------------------------------------------------------|
G|-----7-11-11-11-7---7---7-11-11-11-11-13-14------------|  X 2
D|--11--------------11--11-------------------------------| 
A|-------------------------------------------------------|
E|-------------------------------------------------------|
            
Submit corrections

↑ Back to top | Tablatures and chords for acoustic guitar and electric guitar, ukulele, drums are parodies/interpretations of the original songs. You may use it for private study, scholarship, research or language learning purposes only