Home » M » M83 »

M83 - Outro Ukulele

Artists:  A B C D E F G H I J K L M N O P Q R S T U V W X Y Z # 

Outro Ukulele

(ver. 2) Click to play this song!
M83
 Rating:
4.3/5 (19 votes)
                [intro]

      D               Em      Bm              G               D
A|----0---------------2-------5---------------5---------------0----|
E|----2---------------3-------2---------------7---------------2----|
C|----2---------------4-------2---------------7---------------2----|
G|----2---------------0-------4---------------0---------------2----|



      D               Em      Bm              G               D
A|----0---------------2-------5---------------5---------------0----|
E|----2---------------3-------2---------------7---------------2----|
C|----2---------------4-------2---------------7---------------2----|
G|----2---------------0-------4---------------0---------------2----|
                                                      
 

      D               Em      Bm              G               D
A|----5---------------7-------9--------------10--------------12----|
E|----5---------------7-------7---------------7--------------10----|
C|----6---------------7-------6---------------7---------------9----|
G|----7---------------0-------7---------------7--------------11----|
                                                      
 
 
      D              Gsus2    Bm             G                D
A|---12--------------10-------9--------------5----------------5----|
E|---10--------------10-------7--------------7----------------5----|
C|----9---------------9-------6--------------7----------------6----|
G|---11---------------0-------7--------------0----------------7----|



[break]



[verse]

      D                         Em           Bm              G               D
A|----5-------------------------7------------9---------------5---------------5----|
E|----5-------------------------7------------7---------------7---------------5----|
C|----6-------------------------7------------6---------------7---------------6----|
G|----7-------------------------0------------7---------------0---------------7----|
                                                     I'm the king of my own  land
 
 
      D                         Em           Bm              G               D
A|----5-------------------------7------------9---------------5---------------5----|
E|----5-------------------------7------------7---------------7---------------5----|
C|----6-------------------------7------------6---------------7---------------6----|
G|----7-------------------------0------------7---------------0---------------7----|
                         Facing tempests of  dust,      I'll fight until the end


      D                         Em           Bm              G               D
A|----5-------------------------7------------9---------------5---------------5----|
E|----5-------------------------7------------7---------------7---------------5----|
C|----6-------------------------7------------6---------------7---------------6----|
G|----7-------------------------0------------7---------------0---------------7----|
         Creatures of my dreams raise up and dance with me


      D                         Em           Bm              G               D
A|----5-------------------------7------------9--------------10--------------12----|
E|----5-------------------------7------------7---------------7--------------10----|
C|----6-------------------------7------------6---------------7---------------9----|
G|----7-------------------------0------------7---------------7--------------11----|
                     Now and forever,               I'm your king


[instrumental]

      D               Em      Bm              G               D
A|----0---------------2-------5---------------2---------------0----|
E|----2---------------3-------2---------------3---------------2----|
C|----2---------------4-------2---------------2---------------2----|
G|----2---------------0-------4---------------0---------------2----|
                                                      
 

      D               Em      Bm              G               D
A|----0---------------2-------5---------------2---------------0----|
E|----2---------------3-------2---------------3---------------2----|
C|----2---------------4-------2---------------2---------------2----|
G|----2---------------0-------4---------------0---------------2----|
                                                      
 

      D               Em      Bm              G               D
A|----5---------------7-------9---------------5---------------5----|
E|----5---------------7-------7---------------7---------------5----|
C|----6---------------7-------6---------------7---------------6----|
G|----7---------------0-------7---------------0---------------7----|
                                                      
 

      D               Em      Bm              G               D
A|----5---------------7-------9--------------10--------------12----|
E|----5---------------7-------7---------------7--------------10----|
C|----6---------------7-------6---------------7---------------9----|
G|----7---------------0-------7---------------7--------------11----|
                     

                    
[outro]

    D                                  Bm                Gsus2                        
A|--0----------------------------------2------------------0--------0------------------------|
E|--2----2--------3--------2-----------2---2-------2------3----3---3---3--2-----3---2-------|
C|--2----2--------2--------2-----------2-----2-----2------2--------2------------2------2----|
G|--2----2--------2--------2-----------4-----------4------0--------0------------0-----------|



A|---------------------------|
E|----2--------2--------2----|
C|----2--------2--------2----|
G|----2--------2--------2----|



    D                                  Bm                Gsus2                        
A|--0----------------------------------2------------------0--------0------------------------|
E|--2----2--------3--------2-----------2---2-------2------3----3---3---3--2-----3---2-------|
C|--2----2--------2--------2-----------2-----2-----2------2--------2------------2------2----|
G|--2----2--------2--------2-----------4-----------4------0--------0------------0-----------|



                                   D
A|---------------------------------0-----------------------------------------0----|
E|----2--------2--------2----------2-----2--------2--------2---------------2------|
C|----2--------2--------2----------2-----2--------2--------2-------------2--------|
G|----2--------2--------2----------2-----2--------2--------2-----------2----------|



            
Submit corrections

↑ Back to top | Tablatures and chords for acoustic guitar and electric guitar, ukulele, drums are parodies/interpretations of the original songs. You may use it for private study, scholarship, research or language learning purposes only