» » »

M2m - Wanna Be Where You Are Tabs

Artists:  A B C D E F G H I J K L M N O P Q R S T U V W X Y Z # 

Wanna Be Where You Are Tabs

(ver. 1) Click to play this song!
M2m
 Rating:
4.2/5 (5 votes)


 Wanna Be Where You Are lessons Tabs too difficult? Try these video lessons and learn fast
 
                
*Time: 3
       4

(Piano arranged for guitar)

Intro:

 C         G          Am
e-0----0-------|------3-0-----------|-----|
b----------3---|-3-----------1------|--3--|
g----0---0---0-|---0-------2---2----|-----|
d--------------|--------------------|-----|
a-3------------|--------------------|--3--|
E--------------|--------------------|-----|

Verses:

  C       G           Am
e-0----0-------|------3-0-----------|
b----------3---|-3-----------1------|
g----0---0---0-|---0-------2---2----|
d--------------|--------------------|
a-3------------|--------------------|
E--------------|--------------------|

  C           Am  
e-0---------------|------0--------|----------0---|
b----3--1--0--1---|-1--------1----|-0---0------1-|
g---------------2-|---2----2---2--|---2---2------|
d-----------------|---------------|--------------|
a-3-----------0---|---------------|--------------|
E-----------------|---------------|--------------|

e----------------|
g----1----0------|
d--2---2---------|
a----------------|
E----------------|

  C        G          Am              Dm       C
e-0----0-------|------3-0-----------|-----1----0----|
b----------3---|-3-----------1------|-------3-------|
g----0---0---0-|---0-------2---2----|---2---------0-|
d--------------|--------------------|-0-------------|
a-3------------|--------------------|----------3----|
E--------------|--------------------|---------------|
                                     make me ..evrthng
               Dm         Am
e-------------|-----1----------|-0-------0---|
b-------------|-------3--------|-----1-----1-|
g-----------2-|---2------------|-------2-----|
d---------0---|-0------------2-|---2---------|
a--3-2-0------|-----------0----|-------------|
E-------------|----------------|-------------|
             ...u keep me smilin'

              Dm                    C
e-3--3--1--0--1----|-----1-1-1-0---|-0-------0-0-0-|
b------------------|-3-----------3-|-----1---------|
g----------------2-|---2-----------|---0---0-------|
d-------------0----|---------------|---------------|
a-3----------------|---------------|-3-------------|
E------------------|---------------|---------------|


        G                  C
e------------0---|--------------|-------------|
b-3--1--1--------|-3--3--1--1---|-1---1---1---|
g----------2---2-|------------0-|---0---0---0-|
d----------------|--------------|-------------|
a-------0--------|----------3---|-------------|
E----------------|--------------|-------------|

Chorus:
  Am, G, C

Bridge:
  
Instrumental: (last)==>leading to verse
  G, Dm, C, G, C

Ending:
 G         D/F#        Em          Dm      C
e----------------|---------------|---------------|
b-0----0---------|---3--0----0---|-----3---------|
g----0---0-------|-2-------0---0-|---2---2-------|
d--------------0-|---------------|-0-----------2-|
a----------------|---------------|----------3----|
E-3---------2----|------0--------|---------------|
  starts...       ...again               ...you
 
     Dm        C
e--------------|---------------|-----------------|
b----1-----3---|-------1h3-1---|--1---1---1------|
g--0-----2---2-|-----0-------0-|----0---0---0----|
d------0-------|---2-----------|-----------------|
a--------------|-3-------------|-----------------|
E--------------|---------------|-----------------|
 ..uu           ..uu           I wanna be where u 

  G
e------------3------|
b----------0--------|
g--------0----------|
d------0------------|
a----2--------------|
E--3----------------|
 are..

*this sounds right!! Although all of these
are by ear only.
if u have any corrections, just e-mail me.
*if u've got an original piano score
 written in standard notation, please share and
 send it to me.
            
Submit corrections



        Wanna Be Where You Are lessons Hard to play? Try these video lessons and learn fast Wanna Be Where You Are lessons
        
↑ Back to top | Tablatures and chords for acoustic guitar and electric guitar, ukulele, drums are parodies/interpretations of the original songs. You may use it for private study, scholarship, research or language learning purposes only