» » »

Lynyrd Skynyrd - Last Rebel Tabs

Artists:  A B C D E F G H I J K L M N O P Q R S T U V W X Y Z # 

Last Rebel Tabs

(ver. 1) Click to play this song!
Lynyrd Skynyrd
 Rating:
4/5 (4 votes)

 Last Rebel lessons Tabs too difficult? Try these video lessons and learn fast
 
                (Intro)
Am  AmIII  CIII   C     G     F
|-----0-----0----0-----0-----3-----1----|
|-----1-----3----3-----1-----0-----1----|
|-----2-----4----0-----0-----0-----2----|
|-----2-----4----4-----2-----0-----3----|
|-----0-----0----5-----3-----2-----3----|
|----------------------------3-----1----|

  Am        AmIII      Am       C          CIII   C
|------(0)---------------------------------------------------|
|-------1--------3---------1--------1----------3-------1-----|
|---2-------------4---------2-------0-----------0-------0----|
|---2--------3s4-------4s2--------2---2----------------------|
|-0---0-------------------------3----------3s5-----5s3-------|
|------------------------------------------------------------|

  C                CIII        C
|-------------0------------------------------|
|---------0h1---1--------3----------1--------|
|------0-------------------0---------0-------|
|----2--------------2s4--------4s2-----------|
|-3------------------------------------------|
|--------------------------------------------|

   F       G           G     F
|--------------------------------------|
|--------------------------------------|
|------------------------------2-------|
|-----------------------0------3-------|
|-----------------------2------3-------|
|--1-------3----------0-3----0h1-------|
            
Submit corrections


        Last Rebel lessons Hard to play? Try these video lessons and learn fast Last Rebel lessons
        
↑ Back to top | Tablatures and chords for acoustic guitar and electric guitar, ukulele, drums are parodies/interpretations of the original songs. You may use it for private study, scholarship, research or language learning purposes only