» » »

Lynyrd Skynyrd - Junkie Tabs

Artists:  A B C D E F G H I J K L M N O P Q R S T U V W X Y Z # 

Junkie Tabs

(ver. 3) Click to play this song!
Lynyrd Skynyrd
 Rating:
4.3/5 (25 votes)
                [Intro]
(Use alternate picking with some palm muting throughout)

e|---------------------------------------------------------------------------|
B|----------------------------------3----------------------------------------|
G|----------------------------------2----------------------------------------|
D|----------------------------------0----2 0----------------repeat-----------|
A|---2----2--------- ---2---2-0-2-------------2 0----------------------------|
E|---0--0-0---0---3-0-3-0---------------------------3^-----------------------|

                             Band kicks in
e|---------------------------------------------------------------------------|
B|---------------------------------------------------------------------------|
G|--------------------------4---2---4----7--------------------use for chorus-|
D|--------------------------4---2---4----7----0-2-0--------------------------|
A|---2------2-----------2----------------------------2-0---------------------|
E|---0---0--0--0--3-0-3-0----------------------------------3^----------------|

[Verse]
e|-------0--------3----------------------------------------------------------|
B|-------0--------3------4----2----4----/7-----------------------------------|
G|--X--------------------4----2----4----/7-----------------------------------|
D|--2--------0---------------------------------------------------------------|
A|--2--------2---------x-----------------------------------------------------|
E|--0-(4)----3---------x------------------------12/3-------------------------|

[Bridge riff]
e|---------------------------------------------------------------------------|
B|---------------------------------------------------------------------------|
G|---------------------------------------------------------------------------|
D|---------------------------------Repeat 9x---------------------------------|
A|---2-----------------------------------------------------------------------|
E|---0-00-0-00-3-0-5-0-3 ----------------------------------------------------|

e|---------------------------------------------------------------------------|
B|----------12---------------------------------------------------------------|
G|----------12-----------9-7-------------------------------------------------|
D|----------12---------9------9--8-7-5--------play 4x------------------------|
A|---------------------------------------------------------------------------|
E|---0----0------------------------------------------------------------------|

Last time
e|---------------------------------------------------------------------------|
B|-----------12---------------------------12---------------------------------|
G|-----------12-----7-----7---------------12----------4--2--4--7-------------|
D|-----------12---9-----9----9-8-7-5------12----------4--2--4--7--0-2-0------|
A|----------------------------------------------------------------------2-0--|
E|----0----0----------------------------0-----0-3-0-3-----------------------3|

[Outro]
e|---------------------------------------------------------------------------|
B|---------------------------------------------------------------------------|
G|------9^~--9^~-----9^(9)7--------------------------------------------------|
D|------------------------------9---7----5-----------------------------------|
A|--------------------------------------------7------------------------------|
E|---------------------------------------------------------------------------|            
Submit corrections

↑ Back to top | Tablatures and chords for acoustic guitar and electric guitar, ukulele, drums are parodies/interpretations of the original songs. You may use it for private study, scholarship, research or language learning purposes only