» » »

Lynyrd Skynyrd - I Ain't The One Tabs

Artists:  A B C D E F G H I J K L M N O P Q R S T U V W X Y Z # 

I Ain't The One Tabs

(ver. 1) Click to play this song!
Lynyrd Skynyrd
 Rating:
4/5 (4 votes)

 I Ain't The One lessons Tabs too difficult? Try these video lessons and learn fast
 
                intro                         solo
|--|------x3-|-|--------x3|--|15b(17)-17\-17p15---------------------------20-21bb-|
|--|---------|-|----------|--|-----------------15p14-17-13-15-10-13p10-14b--------|
|--|o-------o|-|o-------2o|--|----------------------------------------------------|
|--|o-------o|5|o--------o|79|----------------------------------------------------| 
|3~|-00-03h4-|3|-00-03h4--|57|----------------------------------------------------|
|--|---------|-|----------|--|----------------------------------------------------|
solo (cont)        verse
|22p20------------|------------------|-----------|------------------|---------|-----|
|-----22p20-----22|------------------|-----------|------------------|---------|-----|
|----------20p18--|--------2---------|---------2-|--------2---------|---------|-----|
|-----------------|------------------|-----------|------------------|--------0|75554|
|-----------------|00-0-3h4-0h3p0h3p0|00-0-3h4---|00-0-3h4-0h3p0h3p0|00-0-3h4-|53332|
|-----------------|------------------|----------3|------------------|---------|-----|

|-----------------|---------------------------|
|-----------------|---------------------------|
|-----------5-5---|---------------------------|
|--------------9-7|-----------10-10-10-7-10-12|
|5-5-5-7-9-9------|5-5-5-7-9-9----------------|
|-----------------|---------------------------|

then play first 2 bars of the verse

chorus
|----------------------|-------------------|
|----------------------|-------------------|
|o---------------------|------------------o|
|o---------------------|------------------o|
|---------4p2-4p2-2-4p2|-------4p2-4p2-2-4-|
|-0-0-0-3--------3-----|0-0-0-3-------3----|
then after chorus 
before second solo        2nd solo                   
|--------------|---------|--------------------------(12b below bend up then down)--|
|--------------|---------|10-13p10-12-10-17b-13p12--12b-19b~-19p17-----------------|
|--------2-----|---------|------------------------14--------------19p17--17h19p17--|
|--------------|---------|---------------------------------------------19--------19|
|00-0-3h4-0-3-3|00-0-3h4-|---------------------------------------------------------|
|--------------|---------|---------------------------------------------------------|

then repeat verse and chorus then play
|-------------------------------------|
|-------------------------------------|
|-------------------------------------|
|7-7-7p5-7-7-5-7p5-7-7-7p5-7p5-7p5-7p5|
|-------------------------------------|
|-------------------------------------|

just before main solo play (thats just a ruff idea i don't think the rythm is right but the notes are)
|--------------------------------------------------------------------|
|13-13-13-10-13-13-10-13-10-13-10-13-13-10-13-10-10-13p10-13p10-13p10|
|--------------------------------------------------------------------|
|--------------------------------------------------------------------|
|--------------------------------------------------------------------|
|--------------------------------------------------------------------|

solo
|--------------------------------|
|13b-13b-14b-13b-13b-13p10--13p10|
|-------------------------12-----|
|--------------------------------|
|--------------------------------|
|--------------------------------|

ok i'm still trying to figure the main solo out but i'll be backsoon with it.
after solo play the part after first chorus then play verse then chorus then the ending part i'll tab out
c u soon skyntallica
            
Submit corrections


        I Ain't The One lessons Hard to play? Try these video lessons and learn fast I Ain't The One lessons
        
↑ Back to top | Tablatures and chords for acoustic guitar and electric guitar, ukulele, drums are parodies/interpretations of the original songs. You may use it for private study, scholarship, research or language learning purposes only