» » »

Lynyrd Skynyrd - Gifted Hands Tabs

Artists:  A B C D E F G H I J K L M N O P Q R S T U V W X Y Z # 

Gifted Hands Tabs

(ver. 2) Click to play this song!
Lynyrd Skynyrd
 Rating:
4/5 (4 votes)


 Gifted Hands lessons Tabs too difficult? Try these video lessons and learn fast
 
                Lynyrd Skynyrd- Gifted Hands
Album- God & Guns 2009
5:22

h- Hammer on
p- Pull of
b- Bend
r- Release
brp- Bend Release Pulloff
/- slide up
\- slide down
x- dead note or muted

 A/A#
E-----|
B-----|
G--2--|
D--2--|
A--1--|
E--0--|


|--0------------0-----------0-------------------------------------------|R|
|-----3------------3------------3--1----1-0-1-0-------------------------|e|
|--------4------------2-------------------------0-----------------------|p|
|---------------0-----------------------------------5---------------0---|e|
|---------------------------3-----------------------5----------0h2------|a|
|--3------------------------------------------------3-------3-----------|t|


G
I remember the day that he came in
  D
I can't believe how long it's been
       C                 G
Like a poet, he began to play
G
Just an old friend that hung with the band
  D
A drinkin' man he had no plan
       C
But he played the 'Bird...
              G
Played it for free


         G
'Cause I know he's here
     D
He's everywhere
C                                  G
Take a look around oh and you will see
     G
That cross we bear
     D
It's in the air
C                                  G
Lord we thank you for these gifted hands


Slide Guitar:
|----------------------------------------|
|----------------------------------------|
|---2/7---9--12/19---19-17---17\12-------|
|----------------------------------------|
|----------------------------------------|
|----------------------------------------|


          G
There are demons we live with every day
     D
That tear at our hearts and take us away
   C
To another place
                     G
Some of us don't get back
     G
This song is for the hands of the workin' man
    D
Who believes in himself and he understands
C                                     G
Love, hope, and faith are The Maker's plan


         G
'Cause I know he's here
     D
He's everywhere
C                                  G
Take a look around oh and you will see
     G
That cross we bear
     D
It's in the air
C                                  G
Lord we thank you for these gifted hands

Bridge:

C                           D
One day we'll all take that ride
    C                                     D
And with those gifted hands I know you'll fly


Interlude:
 G           D            C                    G
|---------------------------------------------------|R|
|---------------------------------------------------|e|
|-2/7--9--12/19--19-19-18-17----17-16-17-16-14-12---|p|
|---------------------------------------------------|e|
|---------------------------------------------------|a|
|---------------------------------------------------|t|
Then
   A/A#     C        D
|--9---9----8---8----10--------|R|
|--6b--6b---11b-11b--13b-------|e|
|------------------------------|p|5 more times
|------------------------------|e|
|------------------------------|a|
|------------------------------|t|
Then
Solo:

|-----------------------------------------------------------------------|
|-13---13---13--13--13------------------10------------------------------|
|-13b--13b--13b-13b-13brp10----10-------10--------------10------10h12---|
|---------------------------12----12-12----12-----10/12----12-----------|
|-----------------------------------------------------------------------|
|-----------------------------------------------------------------------|

|-----------------------------------------------------------------------15----|
|-----11-----------------------------------------------------10-10--10--------|
|--10h12--10-----11------------------------------------------10-10--10--------|
|-------------10h12--12h10--8-10-8-10brp8-----8---------8---------------------|
|------------------------------------------10----10-10---10-------------------|
|-----------------------------------------------------------------------------|

|--10-13-10----------------13b---10-13-10--------------------------------------|
|-----------13-10-13-10-------------------13-10-13-10----13b--13brp10----------|
|-----------------------12----------------------------12--------------12-10-12-|
|------------------------------------------------------------------------------|
|------------------------------------------------------------------------------|
|------------------------------------------------------------------------------|

|----------------------------------------------------------------13brp10------|
|------------------------------------13brp10--------------10-13----------13---|
|-10---------------------------10-12---------12---9h10-12---------------------|
|----12-10-------------8h10-12------------------------------------------------|
|----------12-10--------------------------------------------------------------|
|----------------10/----------------------------------------------------------|

|-10p-8h-10p-8h-10p-8h-10p-8-12p-10h-12p-10h-12p-10h-12p-10--13brp10----10-13b-|
|--------------------------------------------------------------------13--------|
|------------------------------------------------------------------------------|
|------------------------------------------------------------------------------|
|------------------------------------------------------------------------------|
|------------------------------------------------------------------------------|

|-x--------------x---------------x-------------13brp10----10-10----------10-13-|
|-x-15-15-13-----x--15-15-13-----x-15-15-13------------13-------13\--/13-------|
|------------15--------------15-------------15---------------------------------|
|------------------------------------------------------------------------------|
|------------------------------------------------------------------------------|
|------------------------------------------------------------------------------|

|-10----10-13b------10-13-10----10-13b--13b-13b-13b-13brp10----10-10-----------|
|----13---------/13----------13-----------------------------13-------13\-------|
|------------------------------------------------------------------------------|
|------------------------------------------------------------------------------|
|------------------------------------------------------------------------------|
|------------------------------------------------------------------------------|

|--x-x----------------x-x---------------13b--13b-13b-13b-13b-13brp10----10-10------|
|--x-x-15 15br-13-----x-x-15-15br-13---------------------------------13-------13\--|
|-----------------15-----------------15--------------------------------------------|
|----------------------------------------------------------------------------------|
|----------------------------------------------------------------------------------|
|----------------------------------------------------------------------------------|

|-13p10-13p10-13p10-13p10-13p10-13p10-13p10-13p10--13p10-13p10-13p10-13p10-13p10-13p10-13p10-13p10|
|-------------------------------------------------------------------------------------------------|
|-------------------------------------------------------------------------------------------------|
|-------------------------------------------------------------------------------------------------|
|-------------------------------------------------------------------------------------------------|
|-------------------------------------------------------------------------------------------------|

|-10h13p10-----10h13p10-----10h13p10-----10h13p10-----13brp-10----10-10\--------|
|----------13-----------13-----------13-----------13-----------13---------------|
|-------------------------------------------------------------------------------|
|-------------------------------------------------------------------------------|
|-------------------------------------------------------------------------------|
|-------------------------------------------------------------------------------|

|-13p10-13p10-13p10-13p10-13p10-13p10-13p10-13p10--13p10-13p10-13p10-13p10-13p10-13p10-13p10-13p10|
|-------------------------------------------------------------------------------------------------|
|-------------------------------------------------------------------------------------------------|
|-------------------------------------------------------------------------------------------------|
|-------------------------------------------------------------------------------------------------|
|-------------------------------------------------------------------------------------------------|

|--10h13p10-----10h13p10----13b--13b-13b-13brp10----10-13h15-----|
|-----------13-----------13--------------------------------------|
|----------------------------------------------------------------|
|----------------------------------------------------------------|
|----------------------------------------------------------------|
|----------------------------------------------------------------|

Outro:

|--0------------0-----------0----------------------------| |
|-----3------------3------------3--1----1-0-1-0----------| |
|--------4------------2-------------------------0--------|E|
|---------------0----------------------------------------|N|
|---------------------------3----------------------------|D|
|--3------------------------------------------------3----| |


in memory of billy powell and all the skynyrd ones that have passed on. RIP
            
Submit corrections



        Gifted Hands lessons Hard to play? Try these video lessons and learn fast Gifted Hands lessons
        
↑ Back to top | Tablatures and chords for acoustic guitar and electric guitar, ukulele, drums are parodies/interpretations of the original songs. You may use it for private study, scholarship, research or language learning purposes only