» » »

Lykke Li - This Trumpet In My Head Tabs

Artists:  A B C D E F G H I J K L M N O P Q R S T U V W X Y Z # 

This Trumpet In My Head Tabs

(ver. 1) Click to play this song!
Lykke Li
 Rating:
4/5 (4 votes)

 This Trumpet In My Head  lessons Tabs too difficult? Try these video lessons and learn fast
 
                e|--------1----------------------1-------3---1--------------|
B|--1-3-4---4-3-1-/6-(x2)--1-3-4---4-3-1---1---1-4-1-4-3-1--|
G|----------------------------------------------------------|  (x2)
D|----------------------------------------------------------|
A|----------------------------------------------------------|
E|----------------------------------------------------------|

      Gm
e|-----3-----|
B|-----3-----|  play chords
G|-----3-----|  arpeggiated fast
D|-----5-----|  until end
A|-----5-----|  of the song
E|-----3-----|            
Submit corrections


        This Trumpet In My Head  lessons Hard to play? Try these video lessons and learn fast This Trumpet In My Head  lessons
        
↑ Back to top | Tablatures and chords for acoustic guitar and electric guitar, ukulele, drums are parodies/interpretations of the original songs. You may use it for private study, scholarship, research or language learning purposes only