» » »

Lunchmoney Lewis - Bills Bass

Artists:  A B C D E F G H I J K L M N O P Q R S T U V W X Y Z # 

Bills Bass

(ver. 1) Click to play this song!
Lunchmoney Lewis
 Rating:
2.8/5 (26 votes)

 Bills  lessons Tabs too difficult? Try these video lessons and learn fast
 
                Tuning: Standard Tunning
    Pre-Chorus 0:05
G|---------------------------------------------------------------------------|
D|-------7---7---8----------------------9--9---10--------------7---7---8-----|
A|-8--8-------------------10---10---------------------8---8------------------|
E|---------------------------------------------------------------------------|

G|---------------------------------------------------------------------------|Repeat as many times necessary 
D|---------------------------------------------------------------------------|
A|-------2--2----3---------------0---0--1--------------------2---2-----3-----|
E|-3--3-------------------1---1---------------------3----3-------------------|
    Verse 0:30
G|------------2---------3-------5---------------------2---------3----------5-|
D|---3----------------------------------------3------------------------------|
A|--------0--------1--------3---------------------0---------1----------3-----|
E|-1-------------------------------------1-----------------------------------|

G|-------------2---------3-------5-------5--------3---------2----------------| Repeat as many times necessary
D|---3---------------------------------------------------------------5-------|
A|---------0--------1--------3-------3------1----------0---------------------|
E|-1-----------------------------------------------------------3-------------|
      Chorus 1:01
G|--------------2--------3----------5----------------6-------7----------9----|
D|-----3------------------------------------7--------------------------------|
A|----------0--------1---------3-----------------4------5----------7---------|
E|-1-------------------------------------5-----------------------------------|

G|-----5----------------------------------5------3---------2-----------------|Repeat as many times necessary 
D|-------------2--------3---------5----------------------------------5-------|
A|-3----------------------------------3-------1-------0----------------------|
E|---------0-------1---------3----------------------------------3------------|            
Submit corrections


        Bills  lessons Hard to play? Try these video lessons and learn fast Bills  lessons
        
↑ Back to top | Tablatures and chords for acoustic guitar and electric guitar, ukulele, drums are parodies/interpretations of the original songs. You may use it for private study, scholarship, research or language learning purposes only