» » »

Lunatic Soul - Bass

Artists:  A B C D E F G H I J K L M N O P Q R S T U V W X Y Z # 

Bass

(ver. 1) Click to play this song!
Lunatic Soul
 Rating:
4.4/5 (5 votes)

  lessons Tabs too difficult? Try these video lessons and learn fast
 
                [Intro]
1:33
G|-----------------------------------------------------------------------|
D|-----------------------------------------------------------------------|
A|-------------------1-----------------1------------------------1--------|
E|--1h3-3-3---3---3----3--3--1h3-3-3-3---3-3-3---1h3-3-3---3--3---3--3---|

G|---------------------------------------------------------------|
D|---------------------------------------------------------------|
A|--1h3-3-3-3----------------------------------------------------|
E|---------------------------------------------------------------|

I have no clue whether the 'main' riff of the song is played on the bass or on
some sort of synth but it goes something like this:
G|---------------------------------------------------------------|
D|---------5----5-----5------------------------------------------|
A|---------------------------------------------------------------|
E|----3------3----3------3---------------------------------------|

[Outro]
6:25
G|---------------------------------------------------------------|
D|---------------------------------------------------------------|
A|---------------------------------------------------------------|
E|---3----6--3--6--6--3---1--3---4--3--4-3--1--------------------|            
Submit corrections


         lessons Hard to play? Try these video lessons and learn fast  lessons
        
↑ Back to top | Tablatures and chords for acoustic guitar and electric guitar, ukulele, drums are parodies/interpretations of the original songs. You may use it for private study, scholarship, research or language learning purposes only