» » »

Lumineers - Flowers In Your Hair Tabs

Artists:  A B C D E F G H I J K L M N O P Q R S T U V W X Y Z # 

Flowers In Your Hair Tabs

(ver. 2) Click to play this song!
Lumineers
 Rating:
4/5 (4 votes)

 Flowers In Your Hair lessons Tabs too difficult? Try these video lessons and learn fast
 
                Tuning: standard

INTRO
e|-------------------|
B|-------------------|
G|-------------------|
D|-------0h2---------|
A|----2-------2------|
E|-3-----------------|    x4

VERSE 1 (repeat twice)
e|-------------------|
B|-------------------|
G|-------------------|
D|-------0h2---------|
A|----2-------2------|
E|-3-----------------|    x4

e|------------------------------------------------------------------------|
B|------------------------------------------------------------------------|
G|---------0h2-------------0h2--------------------------------------------|
D|------2-------2-------2-------2------------0h2-------------0h2----------|
A|---3---------------3--------------------2-------2-------2-------2-------|
E|-------------------------------------3---------------3------------------|

e|-------------------------------------------------------------------------|
B|-------------------------------------------------------------------------|
G|---2--0h2--0h2---------0h2-----------------------------------------------|
D|-0------------------2-------2----------0h2-------------0h2---------------|
A|-----------------3------------------2-------2-------2-------2------------|
E|---------------------------------3---------------3-----------------------|


CHORUS
e|--0-----2------3--3------|
B|--0-----3------3--3------|
G|--0-----2------0--0------|      (For exact strumming listen to the song
D|--2-----0------0--0------|          or look up a tutorial on Youtube)
A|--2------------2--2------|
E|--0-------------3--3-----|    x2 
    Em    D      G  G

VERSE 2 (Same as VERSE 1)

CHORUS

End on
e|--------------------|
B|--------------------|
G|--------------------|
D|-------0h2----------|
A|----2-------2-------|
E|-3-------------3-x--| 
            
Submit corrections


        Flowers In Your Hair lessons Hard to play? Try these video lessons and learn fast Flowers In Your Hair lessons
        
↑ Back to top | Tablatures and chords for acoustic guitar and electric guitar, ukulele, drums are parodies/interpretations of the original songs. You may use it for private study, scholarship, research or language learning purposes only