» » »

Lumineers - Classy Girls Ukulele

Artists:  A B C D E F G H I J K L M N O P Q R S T U V W X Y Z # 

Classy Girls Ukulele

(ver. 3) Click to play this song!
Lumineers
 Rating:
3.8/5 (23 votes)

 Classy Girls lessons Tabs too difficult? Try these video lessons and learn fast
 
                
Intro
|------7-------|------7-------|------8-------|------8-------
|--3-----3---3-|--3-----3---3-|--5-----5---5-|--5-----5---5-
|0---0-----0---|0---0-----0---|0---0-----0---|0---0-----0---
|--------------|--------------|--------------|--------------


|-----10-------|------8-------|------7-------|------7-------|
|--7-----7---7-|--5-----5---5-|--3-----3---3-|--3-----3---3-|
|0---0-----0---|0---0-----0---|0---0-----0---|0---0-----0---|
|--------------|--------------|--------------|--------------|
                                              Well...
Verse 1
|------7-------|------7-------|------8-------|------8-------
|--3-----3---3-|--3-----3---3-|--5-----5---5-|--5-----5---5-
|0---0-----0---|0---0-----0---|0---0-----0---|0---0-----0---
|--------------|--------------|--------------|--------------
She was standing in the bar    I said 'Hello how do you do?'

|-----10-------|------8-------|------7-------|------7-------|
|--7-----7---7-|--5-----5---5-|--3-----3---3-|--3-----3---3-|
|0---0-----0---|0---0-----0---|0---0-----0---|0---0-----0---|
|--------------|--------------|--------------|--------------|
She handed me a beer           with a kangaroo

|------7-------|------7-------|------8-------|------8-------
|--3-----3---3-|--3-----3---3-|--5-----5---5-|--5-----5---5-
|0---0-----0---|0---0-----0---|0---0-----0---|0---0-----0---
|--------------|--------------|--------------|--------------
She spoke of places I had never been that she had traveled to

|-----10-------|------8-------|------7-------|------7-------|
|--7-----7---7-|--5-----5---5-|--3-----3---3-|--3-----3---3-|
|0---0-----0---|0---0-----0---|0---0-----0---|0---0-----0---|
|--------------|--------------|--------------|--------------|
And we slow danced alone       to faster tunes

|------7-------|------7-------|------8-------|------8-------
|--3-----3---3-|--3-----3---3-|--5-----5---5-|--5-----5---5-
|0---0-----0---|0---0-----0---|0---0-----0---|0---0-----0---
|--------------|--------------|--------------|--------------
I made her laugh I made a pass I showed her me half-dollar ring, she said 'That's pretty cool.

|-----10-------|------8-------|------7-------|------7-------|
|--7-----7---7-|--5-----5---5-|--3-----3---3-|--3-----3---3-|
|0---0-----0---|0---0-----0---|0---0-----0---|0---0-----0---|
|--------------|--------------|--------------|--------------|
But classy girls don't kiss in bars you fool.'

C  F  G F C

Verse 2
C
So later on the crowd calmed down
F
And I believed it was as if
G                 F             C
something drew me closer to her lips
C
Picture my surprise when I had
F
tried to lean in for a kiss
G                   F               C
She just smiled and turned her head down quick
C
I asked her why, she replied it was nothin' I was doin'
F
wrong. It's just what it is
G                      F                 C
But classy girls don't kiss in bars like this

Chorus
F                     G
No classy girls don't kiss in bars
F                     G
Boys will break their backs and hearts
F
but its alright
G
The hardest part is through

Ah through

Ah through

Ah through
                    C
The hardest part is through            
Submit corrections


        Classy Girls lessons Hard to play? Try these video lessons and learn fast Classy Girls lessons
        
↑ Back to top | Tablatures and chords for acoustic guitar and electric guitar, ukulele, drums are parodies/interpretations of the original songs. You may use it for private study, scholarship, research or language learning purposes only