Home » L » Luke »

Luke - Short Site Bass

Artists:  A B C D E F G H I J K L M N O P Q R S T U V W X Y Z # 

Short Site Bass

(ver. 1) Click to play this song!
Luke
 Rating:
4/5 (4 votes)
                This a parody of the song "Longview" by Green Day" but the tab is almost the same.
G|------|
D|------|
A|--18/-|
E|------|

Verse
G|--------------------------------------9-7-6-7-|
D|-------9-7-6------7-5-4------9-7-6----0-0-0-0-|
A|---0h7--------0h5--------0h7------------------|
E|----------------------------------------------| X6

Chorus
G|-------------|
D|-------------|
A|--0000000000-|
E|-------------|

G|---------------|
D|---------------|
A|-----------66--| X5
E|--6666--44-----|

That is pretty much the whole thing. You can inprovise when need to.
Enjoy!
            
Submit corrections

↑ Back to top | Tablatures and chords for acoustic guitar and electric guitar, ukulele, drums are parodies/interpretations of the original songs. You may use it for private study, scholarship, research or language learning purposes only