» » »

Luke - General Direction Bass

Artists:  A B C D E F G H I J K L M N O P Q R S T U V W X Y Z # 

General Direction Bass

(ver. 1) Click to play this song!
Luke
 Rating:
4/5 (4 votes)

 General Direction lessons Tabs too difficult? Try these video lessons and learn fast
 
                This Song is so far My best, hope you enjoy!
H= Hamer-on
P= Pull off

G|-----------------------------------------------------------------------------
D|--------4h5p4p0-------4h5p4p0------------------------------------------------
A|---5555----------0000----------------------------5-55-55555-5h7-77-77777-7h9-
E|-------------------------------22222222-33333333-----------------------------

G|------------------------------:|
D|------------------------------:|
A|-99-99999-9h--------9-8-7-6-5-:|
E|------------7-77-7------------:|

Thanks, I hope You Enjoy!
Luke
            
Submit corrections


        General Direction lessons Hard to play? Try these video lessons and learn fast General Direction lessons
        
↑ Back to top | Tablatures and chords for acoustic guitar and electric guitar, ukulele, drums are parodies/interpretations of the original songs. You may use it for private study, scholarship, research or language learning purposes only