» » »

Luke - A Nos Amis Tabs

Artists:  A B C D E F G H I J K L M N O P Q R S T U V W X Y Z # 

A Nos Amis Tabs

(ver. 1) Click to play this song!
Luke
 Rating:
4/5 (4 votes)

 A Nos Amis  lessons Tabs too difficult? Try these video lessons and learn fast
 
                -------------------------------------------------------------------------------
                            LUKE - A Nos Amis (intro)
-------------------------------------------------------------------------------
Tabbed by: Benjamin Lamouret
E-mail: benjamin.lamouret@hotmail.fr

Tuning: standard eadgbe

capo on 7st 

e|-0-----------------0-----------------0-----------------0-----------------------|
B|----------0-----------------0-----------------0-----------------0--------------|
G|-------0--------0--------0--------0--------0--------0--------0--------0--------|
D|----0--------0--------0--------0--------0--------0--------0--------0-----------|
A|-------------------------------------3--------3--------------------------------|
E|-0--------0--------0--------0--------------------------3--------3--------------|

e|-0-----------------0---------------------------------------------------------|
B|----------0-----------------0-----------------0-----------------0------------|
G|-------0--------0--------0--------0--------0--------0--------0--------0------|
D|----0--------0--------0--------0--------0--------0-----4---------------------|
A|-------------------------------------9--------------------5--------5---------|
E|-0--------0--------0--------0--------8--------8--------3--------3------------|

            
Submit corrections


        A Nos Amis  lessons Hard to play? Try these video lessons and learn fast A Nos Amis  lessons
        
↑ Back to top | Tablatures and chords for acoustic guitar and electric guitar, ukulele, drums are parodies/interpretations of the original songs. You may use it for private study, scholarship, research or language learning purposes only