» » »

Lucky Ali - Safarnama Tabs

Artists:  A B C D E F G H I J K L M N O P Q R S T U V W X Y Z # 

Safarnama Tabs

(ver. 1) Click to play this song!
Lucky Ali
 Rating:
4.3/5 (13 votes)

 Safarnama  lessons Tabs too difficult? Try these video lessons and learn fast
 
                [Intro]

e|5----9----7---------7-------5------------------|
B|--------------5--------------------------------|
G|-------------------------------------6------7--|
D|-----------------------------------------------|
A|-----------------------------------------------|
E|-----------------------------------------------|


[Lead]

e|------------------------------------------------------------------------------2------------------------|
B|---2---3---5-------------------------2----3----5----------------------------------5---3---5------------|
G|----------------------1---2----4-------------------------------1----2--------------------------6----4--|
D|-----------------4------------------------------------2----4-------------------------------------------|
A|-------------------------------------------------------------------------------------------------------|
E|-------------------------------------------------------------------------------------------------------|            
Submit corrections


        Safarnama  lessons Hard to play? Try these video lessons and learn fast Safarnama  lessons
        
↑ Back to top | Tablatures and chords for acoustic guitar and electric guitar, ukulele, drums are parodies/interpretations of the original songs. You may use it for private study, scholarship, research or language learning purposes only