Home » L » Lower Than Atlantis »

Lower Than Atlantis - Work For It Bass

Artists:  A B C D E F G H I J K L M N O P Q R S T U V W X Y Z # 

Work For It Bass

(ver. 1) Click to play this song!
Lower Than Atlantis
 Rating:
4.4/5 (7 votes)
                [Intro]

G|-----------------------------------------|
D|-----------------------------------------|
A|-0-0-0-0-0-0-3-4\5-4-0-0-0-0-0-0-5-6\7-6-|
E|-----------------------------------------|


[Verse]

G|--------------------------------------------|
D|--------------------------------------------|
A|-00--00----00--00----00--00----00-----------|
E|------------------------------------5-5-5-5-|

G|--------------------------------------|
D|--------------------------------------|
A|-00--00----00--00----00--00----00--00-|
E|--------------------------------------|


[Chorus]

G|-----------------------------------------|  
D|-----------------------------------------|
A|-0-0-0-0-0-0-3-4\5-4-0-0-0-0-0-0-5-6\7-6-| x2
E|-----------------------------------------|


[Solo]

G|---------------------------------------|
D|---------------------------------------|
A|-0-3-5---6-5-3--3-5-4--0-3-5---6-5-3-0-|
E|---------------------------------------|


[Outro]

G|------------------------|
D|------------------------|
A|------------------------|
E|-14/1-0-0-14/1-0-0--5-5-|            
Submit corrections

↑ Back to top | Tablatures and chords for acoustic guitar and electric guitar, ukulele, drums are parodies/interpretations of the original songs. You may use it for private study, scholarship, research or language learning purposes only