» » »

Lower Than Atlantis - Words Dont Come So Easily Tabs

Artists:  A B C D E F G H I J K L M N O P Q R S T U V W X Y Z # 

Words Dont Come So Easily Tabs

(ver. 1) Click to play this song!
Lower Than Atlantis
 Rating:
2.3/5 (24 votes)

 Words Dont Come So Easily  lessons Tabs too difficult? Try these video lessons and learn fast
 
                Tuning: Standard

intro
e|-------0---------------0------------------------|  x2
B|---0-------0---0---0----------------------------|
G|------------------------------------------------|
D|------------------------------------------------|
A|------------------------------------------------|
E|-0---0---0---0---0---0--------------------------|


verse (x2)
e|-------7---------------4---------------0---------------0-------------------| x3
B|---0-------0---0---0-------0---0---0-------0---0---0-------0---0---0-------|
G|---------------------------------------------------------------------------|
D|---------------------------------------------------------------------------|
A|---------------------------------------------------------------------------|
E|-9---9-------9---5---5-------5---0---0-------0---0---0-------0---0---------|

e|-------2---------------4---------------0---------------0-------------------|
B|---0-------0---0---0-------0---0---0-------0---0---0-------0---0---0-------|
G|---------------------------------------------------------------------------|
D|---------------------------------------------------------------------------|
A|---------------------------------------------------------------------------|
E|-4---4-------4---5---5-------5---0---0-------0---0---0-------0---0---------|

pre-chorus (x2)
e|-------7-------5-------2-------4----------------------------|
B|---0-------0-------0-------0--------------------------------|
G|------------------------------------------------------------|
D|------------------------------------------------------------|
A|------------------------------------------------------------|
E|-9---9---7---7---4---4---5---5------------------------------|


chorus
E, G#m, C#m, A.  (E, A - open chords)

verse 2 same as verse 1, but shorter.
pre-chorus 2 same as pre-chorus 1.
chorus same too.

bridge (x4)
e|----------------------------------------------| 
B|----------------------------------------------|
G|---1------------------------------------------|
D|---2------------------------------------------|
A|---2------------------------------------------|
E|---0----1/4--5--------------------------------|

solo
e|-----0---0-----0---0---0---0---0---(few times)| 
B|-5/9---9---9/5---5---5---0---0---0------------|
G|----------------------------------------------|
D|----------------------------------------------|
A|----------------------------------------------|
E|----------------------------------------------|

e|----0----0---0---0---0---0---0---0------------| 
B|-12---12---9---9---9---9---5---5--------------|
G|----------------------------------------------|
D|----------------------------------------------|
A|----------------------------------------------|
E|----------------------------------------------|            
Submit corrections


        Words Dont Come So Easily  lessons Hard to play? Try these video lessons and learn fast Words Dont Come So Easily  lessons
        
↑ Back to top | Tablatures and chords for acoustic guitar and electric guitar, ukulele, drums are parodies/interpretations of the original songs. You may use it for private study, scholarship, research or language learning purposes only