» » »

Lower Than Atlantis - Mike Duces Symphony No 11 In D Minor Tabs

Artists:  A B C D E F G H I J K L M N O P Q R S T U V W X Y Z # 

Mike Duces Symphony No 11 In D Minor Tabs

(ver. 1) Click to play this song!
Lower Than Atlantis
 Rating:
3.4/5 (20 votes)

 Mike Duces Symphony No 11 In D Minor lessons Tabs too difficult? Try these video lessons and learn fast
 
                Tuning: Drop D (DADGBe)

Intro
e|------------------------------------------------------------|
B|-12--12-----8-----5--5-----8-----12--12-----8-----8--0--5---|
G|-12--12-----9-----0--0-----9-----12--12-----9-----9--0--0---|
D|-0---0------0-----5--5-----0-----0---0------0-----0--0--5---|
A|-12--12-----8-----5--5-----8-----12--12-----8-----8--0--5---|
D|------------------------------------------------------------|

e|----------0-------------------------------------------------|
B|----0-------------------------------------------------------|
G|-------5-----5----------------------------------------------|
D|-7--------------9-------------------------------------------|
A|------------------------------------------------------------|
D|------------------------------------------------------------|

e|----------------------------------------------------------------------------------------|
B|---------12-----------------------------8--------------5--------------------------8-----|
G|-----------------12---------------9--------9-----------------5--------------9--------9--|
D|----------------------------------------------------------------------------------------|
A|-12--12------12------12-----8--8-----8-----------5--5-----5-----5-----8--8-----8--------|
D|----------------------------------------------------------------------------------------|

e|---------------------------------------------------------------------------|
B|---------12-----------------------------8--------5----------5\7-----7p0----|
G|-----------------12---------------9--------9-----0----------0\0-----0p0----|
D|-------------------------------------------------5----------5\7-----7p0----|
A|-12--12------12------12-----8--8-----8-----------5----------5\7-----7p0----|
D|---------------------------------------------------------------------------|

Verse 1

e|------------------------------------------------------------|
B|-12--12-----8-----5--5-----8-----12--12-----8-----8--0--5---|
G|-12--12-----9-----0--0-----9-----12--12-----9-----9--0--0---|
D|-0---0------0-----5--5-----0-----0---0------0-----0--0--5---|
A|-12--12-----8-----5--5-----8-----12--12-----8-----8--0--5---|
D|------------------------------------------------------------|

e|----------0-------------------------------------------------|
B|----0-------------------------------------------------------|
G|-------5-----5----------------------------------------------|
D|-7--------------9-------------------------------------------|
A|------------------------------------------------------------|
D|------------------------------------------------------------|

e|----------------------------------------------------------------------------------------|
B|---------12-----------------------------8--------------5--------------------------8-----|
G|-----------------12---------------9--------9-----------------5--------------9--------9--|
D|----------------------------------------------------------------------------------------|
A|-12--12------12------12-----8--8-----8-----------5--5-----5-----5-----8--8-----8--------|
D|----------------------------------------------------------------------------------------|

e|---------------------------------------------------------------------------|
B|---------12-----------------------------8--------5----------5\7-----7p0----|
G|-----------------12---------------9--------9-----0----------0\0-----0p0----|
D|-------------------------------------------------5----------5\7-----7p0----|
A|-12--12------12------12-----8--8-----8-----------5----------5\7-----7p0----|
D|---------------------------------------------------------------------------|

Chorus
e|---------------------------------------------------------------------------|
B|---------------------------------------------------------------------------|
G|---------------------------------------------------------------------------|
D|-7-----10-----3------2---1---0---------------------------------------------|
A|-7-----10-----3------2---1---0---------------------------------------------|
D|-7-----10-----3------2---1---0---------------------------------------------|

e|---------------------------------------------------------------------------|
B|---------------------------------------------------------------------------|
G|---------------------------------------------------------------------------|
D|-7-----10-----3------2---1---0---------------------------------------------|
A|-7-----10-----3------2---1---0---------------------------------------------|
D|-7-----10-----3------2---1---0---------------------------------------------|

Verse 2
e|------------------------------------------------------------|
B|-12--12-----8-----5--5-----8-----12--12-----8-----8--0--5---|
G|-12--12-----9-----0--0-----9-----12--12-----9-----9--0--0---|
D|-0---0------0-----5--5-----0-----0---0------0-----0--0--5---|
A|-12--12-----8-----5--5-----8-----12--12-----8-----8--0--5---|
D|------------------------------------------------------------|

e|----------0-------------------------------------------------|
B|----0-------------------------------------------------------|
G|-------5-----5----------------------------------------------|
D|-7--------------9-------------------------------------------|
A|------------------------------------------------------------|
D|------------------------------------------------------------|

e|----------------------------------------------------------------------------------------|
B|---------12-----------------------------8--------------5--------------------------8-----|
G|-----------------12---------------9--------9-----------------5--------------9--------9--|
D|----------------------------------------------------------------------------------------|
A|-12--12------12------12-----8--8-----8-----------5--5-----5-----5-----8--8-----8--------|
D|----------------------------------------------------------------------------------------|

e|---------------------------------------------------------------------------|
B|---------12-----------------------------8--------5----------5\7-----7p0----|
G|-----------------12---------------9--------9-----0----------0\0-----0p0----|
D|-------------------------------------------------5----------5\7-----7p0----|
A|-12--12------12------12-----8--8-----8-----------5----------5\7-----7p0----|
D|---------------------------------------------------------------------------|

Chorus
e|---------------------------------------------------------------------------|
B|---------------------------------------------------------------------------|
G|---------------------------------------------------------------------------|
D|-7-----10-----3------2---1---0---------------------------------------------|
A|-7-----10-----3------2---1---0---------------------------------------------|
D|-7-----10-----3------2---1---0---------------------------------------------|

e|---------------------------------------------------------------------------|
B|---------------------------------------------------------------------------|
G|---------------------------------------------------------------------------|
D|-7-----10-----3------7---3---2---------------------------------------------|
A|-7-----10-----3------7---3---3---------------------------------------------|
D|-7-----10-----3------7---3---2---------------------------------------------|

Outro
  D     D    D  U   U   D    D    D  U    D     D     D  U      U   D     D     D   U
e|----------------------------------------------------------------------------------------|
B|----------------------------------------------------------------------------------------|
G|----------------------------------------------------------------------------------------|
D|-7----7----7--7----7--7----7----7--7----10----10----10--10----10--10----10----10--10----|
A|-7----7----7--7----7--7----7----7--7----10----10----10--10----10--10----10----10--10----|
D|-7----7----7--7----7--7----7----7--7----10----10----10--10----10--10----10----10--10----|

  D     D    D  U   U   D    D    D  U    D   D   D  D  U  U  D  U
e|----------------------------------------------------------------------------------------|
B|----------------------------------------------------------------------------------------|
G|----------------------------------------------------------------------------------------|
D|-3----3----3--3----3--3----3----3--3----2---1---0--0--0--0--0--0------------------------|
A|-3----3----3--3----3--3----3----3--3----2---1---0--0--0--0--0--0------------------------|
D|-3----3----3--3----3--3----3----3--3----2---1---0--0--0--0--0--0------------------------|

  D     D    D  U   U   D    D    D  U    D     D     D  U      U   D     D     D   U
e|----------------------------------------------------------------------------------------|
B|----------------------------------------------------------------------------------------|
G|----------------------------------------------------------------------------------------|
D|-7----7----7--7----7--7----7----7--7----10----10----10--10----10--10----10----10--10----|
A|-7----7----7--7----7--7----7----7--7----10----10----10--10----10--10----10----10--10----|
D|-7----7----7--7----7--7----7----7--7----10----10----10--10----10--10----10----10--10----|

  D     D    D  U   U   D    D    D  U    D   D   D  D  U  U  D  U   D
e|----------------------------------------------------------------------------------------|
B|----------------------------------------------------------------------------------------|
G|----------------------------------------------------------------------------------------|
D|-3----3----3--3----3--3----3----3--3----2---1---0--0--0--0--0--0----7-------------------|
A|-3----3----3--3----3--3----3----3--3----2---1---0--0--0--0--0--0----7-------------------|
D|-3----3----3--3----3--3----3----3--3----2---1---0--0--0--0--0--0----7-------------------|            
Submit corrections


        Mike Duces Symphony No 11 In D Minor lessons Hard to play? Try these video lessons and learn fast Mike Duces Symphony No 11 In D Minor lessons
        
↑ Back to top | Tablatures and chords for acoustic guitar and electric guitar, ukulele, drums are parodies/interpretations of the original songs. You may use it for private study, scholarship, research or language learning purposes only