Home » L » Lower Than Atlantis »

Lower Than Atlantis - Beech Like The Tree Bass

Artists:  A B C D E F G H I J K L M N O P Q R S T U V W X Y Z # 

Beech Like The Tree Bass

(ver. 1) Click to play this song!
Lower Than Atlantis
 Rating:
4/5 (4 votes)
                -------------------------------------------------------------------------------
                             Beech Like The Tree - Lower than Atlantis
-------------------------------------------------------------------------------

Tuning:DADG
0:00 - 0:16
G|---------------------------------------------------------------------------|(x4)
D|-4--------4---------4--------4---------------------------------------------|
A|--0-5777-----7-------0-5777-----7-0420-------------------------------------|
D|5--------5-00-024--5--------5-00-------------------------------------------|

0:16 - 0:30
G|---------------------------------------------------------------------------|
D|---------------------------------------------------------------------------|
A|---------------------------------------------------------------------------|
D|-555-5-5-5-000-0-0-0-024---------------------------------------------------|(x4)

0:30 - 0:46
G|---------------------------------------------------------------------------|
D|---------------------------------------------------------------------------|
A|-------------------------------------------------------------2-------------|
D|-5--0--2-024--5--0--2-024--5--0--2-024--5--0--2-024--5--0--24--------------|

Just guitar 0:46 - 0:53 

0:53 - 1:01
G|---------------------------------------------------------------------------|(x2)
D|-4--------4---------4--------4---------------------------------------------|
A|--0-5777-----7-------0-5777-----7-0420-------------------------------------|
D|5--------5-00-024--5--------5-00-------------------------------------------|

1:01 - 1:16

G|---------------------------------------------------------------------------|
D|---------------------------------------------------------------------------|
A|---------------------------------------------------------------------------|
D|-55555-5-5-5-00000-2024----------------------------------------------------|(x4)

1:16 - 1:31
G|---------------------------------------------------------------------------|
D|---------------------------------------------------------------------------|
A|-------------------------------------------------------------2-------------|
D|-5--0--2-024--5--0--2-024--5--0--2-024--5--0--2-024--5--0--24--------------|

1:31 - 1:45

G|---------------------------------------------------------------------------|
D|---------------------------------------------------------------------------|
A|---------------------------------------------------------------------------|
E|-5--5-555-00-024--55-000-2\5\7--5-5-0r--2024-55-202------------------------|

1:45 - 2:00

G|---------------------------------------------------------------------------|
D|---------------------------------------------------------------------------|
A|-------------------------------------------------------------2-------------|
D|-5--0--2-024--5--0--2-024--5--0--2-024--5--0--2-024--5--0--24--------------|

2:00 - 2:16

G|---------------------------------------------------------------------------|
D|-4--------4---------4--------4---------------------------------------------|
A|--0-5777-----7-------0-5777-----7-0420-------------------------------------|
D|5--------5-00-024--5--------5-00-------------------------------------------|(x2)


| r  let it ring
| /  slide up
| \  slide down
| h  hammer-on
| p  pull-off
| ~  vibrato
| +  harmonic
| x  Mute note
===============================================================================
            
Submit corrections

↑ Back to top | Tablatures and chords for acoustic guitar and electric guitar, ukulele, drums are parodies/interpretations of the original songs. You may use it for private study, scholarship, research or language learning purposes only