Home » L » Low »

Low - Lullaby Tabs

Artists:  A B C D E F G H I J K L M N O P Q R S T U V W X Y Z # 

Lullaby Tabs

(ver. 2) Click to play this song!
Low
[Main riff]
This is the majority of the song, the rest is slight variations of the same riff, It can be easily improvised

E|--------------------------|
B|--------------------------|
G|--------------------------|
D|-----0------0------0------|
A|---4------4------2--------|
E|-7------5------3----------|
 

Variation: just strum along to the song to understand when to change 

E|------------------------|
B|------------------------|
G|------------------------|
D|-0-0----0-0----0-0-0----|
A|-4-5----4-7----2-5-4----|
E|-7-7----5-5----3-3-3----|            
Submit corrections

↑ Back to top | Tablatures and chords for acoustic guitar and electric guitar, ukulele, drums are parodies/interpretations of the original songs. You may use it for private study, scholarship, research or language learning purposes only