» » »

Love Lies In Ashes - Until The End Tabs

Artists:  A B C D E F G H I J K L M N O P Q R S T U V W X Y Z # 

Until The End Tabs

(ver. 1) Click to play this song!
Love Lies In Ashes
 Rating:
4/5 (4 votes)


 Until The End lessons Tabs too difficult? Try these video lessons and learn fast
 
                Artist = Love Lies in Ashes
Title = Until The End
Album = A Beautiful death
Track #3
\m/(>.<)\m/
KEY
 ~ = Bend
 h = Hammer on
 p = Pull off
 \ = Slide
 * = Palm mute
Tuning is drop d
----------------------------------------------------------------------------

Intro 3X
|-----------------------------0-------------------------------0---|
|-----0-------0-------0--------0------0-------0-------0--------0--|
|------5-------5-------5--------5------5-------5-------5--------5-|
|----7--7----7--7----7--7----7-------7--7----7--7----7--7----7----|
|-0-0-----0-0-----0-0-----0-0-----8-8-----8-8-----8-8-----8-8-----|
|-----------------------------------------------------------------|

  Will This last forever........
|--------------------------------------------------------------------|
|--------------------------------------------------------------------|
|-5-555-55-55-5-55-4-444-44-44-4-44-----------------------------575--|
|-7-777-77-77-7-77-5-555-55-55-5-55-3-333-33-33-3-33----------79---7-| 2x
|-----------------------------------3-333-33-33-3-33--------79-------|
|-----------------------------------3-333-33-33-3-33-5-555-0---------|

VERSE 2x
 Every time im around you....
|-------------------------------------------------------------|
|-------------------------------------------------------------|
|-5-00-5-0-5-0-5-575--4-00-4-0-4-0-4-454--5-00-5-0-5-0-5-575--|
|-7-00-7-0-7-0-7----7-5-00-5-0-5-0-5----5-7-00-7-0-7-0-7----7-|
|-------------------------------------------------------------|
|-------------------------------------------------------------|
    **   *   *          **   *   *          **   *   *       
|---------------------|
|---------------------|
|-7-00-5-0-4-0-5-454--|
|-9-00-7-0-5-0-7----5-|
|---------------------|
|---------------------|
    **   *   *
       ------

 Will this last for seconds....
|--------------------------------------------------------------------|
|--------------------------------------------------------------------|
|-5-555-55-55-5-55-4-444-44-44-4-44-----------------------------575--|
|-7-777-77-77-7-77-5-555-55-55-5-55-3-333-33-33-3-33----------79---7-| 2x
|-----------------------------------3-333-33-33-3-33--------79-------|
|-----------------------------------3-333-33-33-3-33-5-555-0---------|

  Hold on....
|-----------------------------|
|-----------0----0----0----0--|
|-5--5--5--5-5--5-5--5-5--5-0-|
|-7--7--7-5----5----0--- 0----| 2x
|-----------------------------|
|-----------------------------|

  Will This last forever........
|--------------------------------------------------------------------|
|--------------------------------------------------------------------|
|-5-555-55-55-5-55-4-444-44-44-4-44-----------------------------575--|
|-7-777-77-77-7-77-5-555-55-55-5-55-3-333-33-33-3-33----------79---7-| 2x
|-----------------------------------3-333-33-33-3-33--------79-------|
|-----------------------------------3-333-33-33-3-33-5-555-0---------|

VERSE 2x
  We talk about the future....
|-------------------------------------------------------------|
|-------------------------------------------------------------|
|-5-00-5-0-5-0-5-575--4-00-4-0-4-0-4-454--5-00-5-0-5-0-5-575--|
|-7-00-7-0-7-0-7----7-5-00-5-0-5-0-5----5-7-00-7-0-7-0-7----7-|
|-------------------------------------------------------------|
|-------------------------------------------------------------|
    **   *   *          **   *   *          **   *   *       
|------------------------|
|------------------------|
|-7-00-5-0-4-0-5-454-----|
|-9-00-7-0-5-0-7----5-7~-|
|------------------------|
|------------------------|
    **   *   *
    -------

|---------------------|
|---0----0----0----0--|
|--5-5--5-5--5-5--5-0-|
|-7----7----6----6----|
|---------------------|
|---------------------|

 Outro 3x
  My heart burns, from with in....
|--------------------------------------------------------------|
|--------------------------------------------------------------|
|-55555------55555------44444------44444------55555------55555-|
|-77777------77777------55555------55555------77777------77777-|
|-------0000-------0000-------0000-------0000-------0000-------|
|-------0000-------0000-------0000-------0000-------0000-------|
        ****       ****       ****       ****       ****
|-------------------------------|
|-------------------------------|
|------77777------55-4-5-4h5h4--|
|------99999------77-5-7------5-|
|-0000-------0000---------------|
|-0000-------0000---------------|
  ****       ****
 ------

 Finish with
|------|
|------|
|-5555-|
|-7777-|
|------|
|------|

End!!!

----------------------------------------------------------------------------
 Check out Love Lies in Ashes at..
     or

and any other music site out there!!
            
Submit corrections



        Until The End lessons Hard to play? Try these video lessons and learn fast Until The End lessons
        
↑ Back to top | Tablatures and chords for acoustic guitar and electric guitar, ukulele, drums are parodies/interpretations of the original songs. You may use it for private study, scholarship, research or language learning purposes only