» » »

Love And Death - Lo Lamento Tabs

Artists:  A B C D E F G H I J K L M N O P Q R S T U V W X Y Z # 

Lo Lamento Tabs

(ver. 1) Click to play this song!
Love And Death
 Rating:
4.3/5 (25 votes)

 Lo Lamento  lessons Tabs too difficult? Try these video lessons and learn fast
 
                DROP G#: G# D# G# c# f a#

Intro Clean
Guitar 1
a#----10-13---10-12---10-12-------12-----
f --11------13------10------10-13--------
c#---------------------------------------
G#---------------------------------------
D#---------------------------------------
G#---------------------------------------

Guitar 2
a#------------------------------------------
f -11-11-11-11-13-13-15-15-6-6-6-6-8-8-10-10
c#------------------------------------------
G#------------------------------------------
D#------------------------------------------
G#------------------------------------------

Guitar 1
a#----10-13---10-12-------12-------------
f --11------13------10-13----------------
c#---------------------------------------
G#---------------------------------------
D#---------------------------------------
G#---------------------------------------

Guitar 2
a#----------------------------------------
f -11-11-11-11-13-13-15-15-6-6-6-6-6-6-6-6
c#----------------------------------------
G#----------------------------------------
D#----------------------------------------
G#----------------------------------------

Intro Distorted
a#---------------------------------------
f ---------------------------------------
c#---------------------------------------
G#--------------------------------5-8-3-6
D#--------------------------------5-8-3-6
G#-0--0-0--0---0-0--0--0--0-0--0--5-8-3-6

a#-----------------------------------------
f -----------------------------------------
c#-----------------------------------------
G#--------------------------------5-10-8-12
D#--------------------------------5-10-8-12
G#-0--0-0--0---0-0--0--0--0-0--0--5-10-8-12

a#----------------------------------------
f ----------------------------------------
c#----------------------------------------
G#--------------------------------0-8-12-7
D#--------------------------------0-8-12-7
G#-0--0-0--0---0-0--0--0--0-0--0--0-8-12-7

a#-----------------------------------------
f -----------------------------------------
c#-----------------------------------------
G#--------------------------------5-10-8-12
D#--------------------------------5-10-8-12
G#-0--0-0--0---0-0--0--0--0-0--0--5-10-8-12¨

Verse
a#---------------------------------------
f ---------------------------------------
c#-----7------7------0-------0-----------
G#---7---7--8--8---3--3---4----4---------
D#-5-------5-----1------1----------------
G#---------------------------------------

a#---------------------------------------
f ---------------------------------------
c#-----7------7------0-------0-----------
G#---7---7--8--8---3--3---3/4--4---------
D#-5-------5-----1------1----------------
G#---------------------------------------


Pre-Chorus
Guitar 1
a#-----------------------------------------------------------------------------------
f ----------------------------------------------------6666---------------------------
c#10-10-10-10-10-10-10-10-10-10-10-10-10-----------------------------9-10-7----------
G#-8-8-8-8-8--8-8-8-8--8-8-8-8--8-8---8---------------3333---------------------------
D#-8-8-8-8-8--8-8-8-8--8-8-8-8--8-8---8------------------------------7-8--5----------
G#-8-8-8-8-8--8-8-8-8--8-8-8-8--8-8---8-----0--0-0--0------0--0-0--0-----------------

Guitar 2 w/effects
a#-10-----------------------10--------------13-12-13-10
f -----------------------------------------------------
c#-----------------------------------------------------
G#-----------------------------------------------------
D#-----------------------------------------------------
G#-----------------------------------------------------

Guitar 1
a#-----------------------------------------------------------------------------------
f ----------------------------------------------------6666---------------------------
c#10-10-10-10-10-10-10-10-10-10-10-10-10-----------------------------10-9-7-7--------
G#-8-8-8-8-8--8-8-8-8--8-8-8-8--8-8---8---------------3333---------------------------
D#-8-8-8-8-8--8-8-8-8--8-8-8-8--8-8---8------------------------------8--7-5-5--------
G#-8-8-8-8-8--8-8-8-8--8-8-8-8--8-8---8-----0--0-0--0------0--0-0--0-----------------

Guitar 2 w/effects
a#-10-----------------------10--------------13-13-12-10-10
f --------------------------------------------------------
c#--------------------------------------------------------
G#--------------------------------------------------------
D#--------------------------------------------------------
G#--------------------------------------------------------

Chorus
Guitar 1
a#------------------------------------------------------------------
f ------------------------------------------------------------------
c#------------------------------------------------------------------
G#------------------------------------------------------------------
D#------------------------------------------------------------------
G#-0-0-0-0-0-0-15-15-10-10-10-10-10-10-12-12-8-8-8-8-8-8-8-8-0-5-5-5

Guitar 2
a#-13-12-10-13-15-15-15-15-12-12-12-12-13-13-10-10-10-10-10-10-10-10-18-18-17-17
f ------------------------------------------------------------------------------
c#------------------------------------------------------------------------------
G#------------------------------------------------------------------------------
D#------------------------------------------------------------------------------
G#------------------------------------------------------------------------------

Guitar 1
a#-------------------------------------------------------------------
f -------------------------------------------------------------------
c#-------------------------------------------------------------------
G#-------------------------------------------------------------------
D#-------------------------------------------------------------------
G#-0-0-0-0-0-0-15-15-10-10-10-10-10-10-12-12-8-8-8-8-8-8-8-8-5--5-5--

Guitar 2
a#-13-13-13-13-13-13-15-15-12-12-12-12-12-12-13-13-10-10-10-10-10-10-------------------------
f -------------------------------------------------------------------11-11-11-11-10~~~~~~~~~~
c#-------------------------------------------------------------------------------------------
G#-------------------------------------------------------------------8-8-8-8-----------------
D#-------------------------------------------------------------------------------------------
G#-------------------------------------------------------------------------------------------

Post-Chorus
a#----------------------------------------
f ----------------------------------------
c#----------------------------------------
G#--------------------------------0-8-12-7
D#--------------------------------0-8-12-7
G#-0--0-0--0---0-0--0--0--0-0--0--0-8-12-7

a#----------------------------------------
f ----------------------------------------
c#----------------------------------------
G#--------------------------------5-10-8-12
D#--------------------------------5-10-8-12
G#-0--0-0--0---0-0--0--0--0-0--0--5-10-8-12

Verse 2
a#---------------------------------------
f ---------------------------------------
c#-----7------7------0-------0-----------
G#---7---7--8--8---3--3---4----4---------
D#-5-------5-----1------1----------------
G#---------------------------------------

a#---------------------------------------
f ---------------------------------------
c#-----7------7------0-------0-----------
G#---7---7--8--8---3--3---3/4--4---------
D#-5-------5-----1------1----------------
G#---------------------------------------

Pre-Chorus
Guitar 1
a#-----------------------------------------------------------------------------------
f ----------------------------------------------------6666---------------------------
c#10-10-10-10-10-10-10-10-10-10-10-10-10-----------------------------9-10-7----------
G#-8-8-8-8-8--8-8-8-8--8-8-8-8--8-8---8---------------3333---------------------------
D#-8-8-8-8-8--8-8-8-8--8-8-8-8--8-8---8------------------------------7-8--5----------
G#-8-8-8-8-8--8-8-8-8--8-8-8-8--8-8---8-----0--0-0--0------0--0-0--0-----------------

Guitar 2 w/effects
a#-10-----------------------10--------------13-12-13-10
f -----------------------------------------------------
c#-----------------------------------------------------
G#-----------------------------------------------------
D#-----------------------------------------------------
G#-----------------------------------------------------

Guitar 1
a#-----------------------------------------------------------------------------------
f ----------------------------------------------------6666---------------------------
c#10-10-10-10-10-10-10-10-10-10-10-10-10---------------------------------------------
G#-8-8-8-8-8--8-8-8-8--8-8-8-8--8-8---8---------------3333---------------------------
D#-8-8-8-8-8--8-8-8-8--8-8-8-8--8-8---8-------------------------------1---------------
G#-8-8-8-8-8--8-8-8-8--8-8-8-8--8-8---8-----0--0-0--0------0--0-0--0-----3-2-0--------

Guitar 2 w/effects
a#-10-----------------------10--------------13-13-12-10-10
f --------------------------------------------------------
c#--------------------------------------------------------
G#--------------------------------------------------------
D#--------------------------------------------------------
G#--------------------------------------------------------

Chorus
Guitar 1
a#------------------------------------------------------------------
f ------------------------------------------------------------------
c#------------------------------------------------------------------
G#------------------------------------------------------------------
D#------------------------------------------------------------------
G#-0-0-0-0-0-0-15-15-10-10-10-10-10-10-12-12-8-8-8-8-8-8-8-8-0-5-5-5

Guitar 2
a#-13-12-10-13-15-15-15-15-12-12-12-12-13-13-10-10-10-10-10-10-10-10-18-18-17-17
f ------------------------------------------------------------------------------
c#------------------------------------------------------------------------------
G#------------------------------------------------------------------------------
D#------------------------------------------------------------------------------
G#------------------------------------------------------------------------------

Guitar 1
a#-------------------------------------------------------------------
f -------------------------------------------------------------------
c#-------------------------------------------------------------------
G#-------------------------------------------------------------------
D#-------------------------------------------------------------------
G#-0-0-0-0-0-0-15-15-10-10-10-10-10-10-12-12-8-8-8-8-8-8-8-8-5--5-5--

Guitar 2
a#-13-13-13-13-13-13-15-15-12-12-12-12-12-12-13-13-10-10-10-10-10-10-------------------------
f -------------------------------------------------------------------11-11-11-11-10~~~~~~~~~~
c#-------------------------------------------------------------------------------------------
G#-------------------------------------------------------------------8-8-8-8-----------------
D#-------------------------------------------------------------------------------------------
G#-------------------------------------------------------------------------------------------

Bridge
a#---------------------------------------
f ---------------------------------------
c#---------------------------------------
G#---------------------------------------
D#---------------------------------------
G#-0000-0000-0-0-00-00-000-000-----------
   .... .... . . .. .. ... ...
a#---------------------------------------
f ---------------------------------------
c#---------------------------------------
G#---------------------------------------
D#---------------------------------------
G#-0000-0000-0-0-00-00-000-0-0-----------
   .... .... . . .. .. ... . .
a#-----------------------------10--------
f -----------------------------13b-------
c#---------------------------------------
G#---------------------------------------
D#---------------------------------------
G#-0000-0000-0-0-00-00-000-000-----------
   .... .... . . .. .. ... ...
a#------------------------------15-------
f ------------------------------18pb/==r\
c#---------------------------------------
G#---------------------------------------
D#---------------------------------------
G#-0000-0000-0-0-00-00-000-0-0-----------
   .... .... . . .. .. ... . .

a#-----------------------------10--------
f -----------------------------13b-------
c#---------------------------------------
G#---------------------------------------
D#---------------------------------------
G#-0000-0000-0-0-00-00-000-000-----------
   .... .... . . .. .. ... ...

Guitar 1
a#---------------------------------------
f ---------------------------------------
c#---------------------------------------
G#---------------------------------------
D#---------------------------------------
G#-0000-0000-0-0-00-00-000-5-4-2-1-------
   .... .... . . .. .. ... 
Guitar 2
a#-------------------------14-13-12-11------
f -------------------------18-17-16-15------
c#------------------------------------------
G#------------------------------------------
D#------------------------------------------
G#------------------------------------------

BREAKDOWN 2
a#-------------------------------
f ------------------------------0
c#------------------------------3
G#-------------------------------
D#-------------------------------
G#-0-1-6-5b-0-1-0-3b----0-00-00--
                        . .. ..
a#----------------------------0
f ----------------------------4
c#-----------------------------
G#-----------------------------
D#-----------------------------
G#00000-6-5v-0-1-0-3b--0-00-00-
                       . .. ..
a#------------------------------
f -----------------------------0
c#-----------------------------3
G#------------------------------
D#------------------------------
G#-0-1-6-5v-0-1-0-3b--0-00-00---
                      . .. ..
a#----------------------------
f ----------------------------
c#----------------------------
G#----------------------------
D#----------------------------
G#00000-6-5v-0-1-0-3b---------

Chorus
Guitar 1
a#------------------------------------------------------------------
f ------------------------------------------------------------------
c#------------------------------------------------------------------
G#------------------------------------------------------------------
D#------------------------------------------------------------------
G#-0-0-0-0-0-0-15-15-10-10-10-10-10-10-12-12-8-8-8-8-8-8-8-8-0-5-5-5

Guitar 2
a#-13-12-10-13-15-15-15-15-12-12-12-12-13-13-10-10-10-10-10-10-10-10-18-18-17-17
f ------------------------------------------------------------------------------
c#------------------------------------------------------------------------------
G#------------------------------------------------------------------------------
D#------------------------------------------------------------------------------
G#------------------------------------------------------------------------------

Guitar 1
a#-------------------------------------------------------------------
f -------------------------------------------------------------------
c#-------------------------------------------------------------------
G#-------------------------------------------------------------------
D#-------------------------------------------------------------------
G#-0-0-0-0-0-0-15-15-10-10-10-10-10-10-12-12-8-8-8-8-8-8-8-8-5--5-5--

Guitar 2
a#-13-13-13-13-13-13-15-15-12-12-12-12-12-12-13-13-10-10-10-10-10-10-------------------------
f -------------------------------------------------------------------11-11-11-11-10~~~~~~~~~~
c#-------------------------------------------------------------------------------------------
G#-------------------------------------------------------------------8-8-8-8-----------------
D#-------------------------------------------------------------------------------------------
G#-------------------------------------------------------------------------------------------

Outro
a#-------------------------------
f ------------------------------0
c#------------------------------3
G#-------------------------------
D#-------------------------------
G#-0-1-6-5b-0-1-0-3b----0-00-00--
                        . .. ..
a#-----------------------------
f -----------------------------
c#-----------------------------
G#-----------------------------
D#-----------------------------
G#00000-6-5v-0-1-0-3b----------
   
a#------------------------------
f -----------------------------0
c#-----------------------------3
G#------------------------------
D#------------------------------
G#-0-1-6-5v-0-1-0-3b--0-00-00---
                      . .. ..
a#----------------------------
f ----------------------------
c#----------------------------
G#----------------------------
D#----------------------------
G#00000-6-5v-0-1-0-3b---------
                
Submit corrections


        Lo Lamento  lessons Hard to play? Try these video lessons and learn fast Lo Lamento  lessons
        
↑ Back to top | Tablatures and chords for acoustic guitar and electric guitar, ukulele, drums are parodies/interpretations of the original songs. You may use it for private study, scholarship, research or language learning purposes only