» » »

Love - Brokan Toyz Tabs

Artists:  A B C D E F G H I J K L M N O P Q R S T U V W X Y Z # 

Brokan Toyz Tabs

(ver. 1) Click to play this song!
Love
 Rating:
4/5 (4 votes)

 Brokan Toyz lessons Tabs too difficult? Try these video lessons and learn fast
 
                "Love"
                                 By bROkAn TOyZ

INTRO: distortion
e:|-------------------------------------------|
B:|-------------------------------------------|
G:|-------------------------------------------|
D:|-------------------------------------------|
A:|----------0--2-----2--1-----2--0-----0-----|
E:|-0--2--3--------3--------2--------1--------|

e:--------------------------------------------||
B:--------------------------------------------||
G:--------------------------------------------||
D:----------------------2--0------------------||
A:----------0--2-----2--------2-----0--2------||
E:-0--2--3--------3--------------3------------||

play this intro three times but the first time just play it normailly, second time through you 
play it palm muted all the way, and the last time do the top line normaly and the second palm
muted and let the last note ring and then go into the main riff of the song!

MAIN RIFF:
e:|---------------------------|
B:|---------------------------|
G:|----------*----------------|
D:|----*--2-2*-----*--5-//-7--|
A:|-2-2*--0-0*--5-5*--3-//-5--|
E:|-0-0*--------3-3*--*-------|

well that's the riff which made the song, listen to the song and you'll see that Boris just
makes this riff fancY by putting in the harmonics over the powerchords, and make's it
trippy!!! and sometimes he plays: D:-5-5-|                         D:-7-||
                                  A:-3-3-|  and then slides up to  A:-5-||
                                  E:-*-*-|                         E:---||


CHORUS:
the chorus is made up of chords:
  Am      E                  G      D
     x3      x3                x3      x6
e:-0-|| e:-0-|| e:-x-x-|| e:-3-|| e:-2-||
B:-1-|| B:-0-|| B:-x-x-|| B:-0-|| B:-3-||
G:-2-|| G:-1-|| G:-x-x-|| G:-0-|| G:-2-||
D:-2-|| D:-2-|| D:-x-x-|| D:-0-|| D:-0-||
A:-0-|| A:-2-|| A:-x-x-|| A:-2-|| A:---||
E:---|| E:-0-|| E:-x-x-|| E:-3-|| E:---||

play that over a couple of times while brody is singing!!

and then go back into the MAIN RIFF!


THE HEAVY PART:
                                                                    X3
e:|------------------------------------------------------------------||
B:|------------------------------------------------------------------||
G:|------------------------------------------------------------------||
D:|------------------------------------------------------------------||
A:|--2--2-2--2--2-2--2--2-2--2--2-2--5--5-5--5--5-5--4--4-4--3--3-3--||
E:|--0--0-0--0--0-0--0--0-0--0--0-0--3--3-3--3--3-3--2--2-2--1--1-1--||
PM      . .     . .     . .     . .     . .     . .     . .     . .


SOLO:
                                                    X3
e:|--------------------------------------------------||
B:|--------------------------------------------------||
G:|---------5---------5---------5---------5--7-7-77--||
D:|---------5---------5---------5---------5--7-7-77--||
A:|------------------------------------------7-7-77--||
E:|-0-0-5-7---0-0-5-7---0-0-5-7---0-0-5-7------------||
PM  . . . .   . . . .   . . . .   . . . .

play that and then go back to the MAIN RIFF and finish the song of with
the CHORUS and this outro:


OUTRO:
play it normally and get slower and at the end strum the "D" chord string by string and
let the last note ring!!

  Am      E                  G        
     x3      x3                x3      
e:-0-|| e:-0-|| e:-x-x-|| e:-3-|| e:-----2-||
B:-1-|| B:-0-|| B:-x-x-|| B:-0-|| B:----3--||
G:-2-|| G:-1-|| G:-x-x-|| G:-0-|| G:---2---||
D:-2-|| D:-2-|| D:-x-x-|| D:-0-|| D:--0----||
A:-0-|| A:-2-|| A:-x-x-|| A:-2-|| A:-0-----||
E:---|| E:-0-|| E:-x-x-|| E:-3-|| E:-------||

Enjoy this beautiful song!!
            
Submit corrections


        Brokan Toyz lessons Hard to play? Try these video lessons and learn fast Brokan Toyz lessons
        
↑ Back to top | Tablatures and chords for acoustic guitar and electric guitar, ukulele, drums are parodies/interpretations of the original songs. You may use it for private study, scholarship, research or language learning purposes only