Home » L » Love »

Love - A House Is Not A Motel Bass

Artists:  A B C D E F G H I J K L M N O P Q R S T U V W X Y Z # 

A House Is Not A Motel Bass

(ver. 1) Click to play this song!
Love
TITLE --- A HOUSE IS NOT A MOTEL (BASS TAB)
ARTIST -- LOVE (BASS: KEN FORSSI)
ALBUM --- FOREVER CHANGES

This transcription is child's play copared to the real bass riff. I in know aspect claim 
tab to be remotely accurate towards Ken Forssi's bass lines.

INTRO
G|----------------------------|
D|-----------5-----------3--5-|
A|5--5-----5---5--5-----------|
E|------2------------2--------|

Verse
G|------------------000-|
D|--------------333-----|
A|--------1-333---------|
E|0--2h3h---------------| X2
At my house I've...
You can come and...
Through the halls...
Where the light...

Bridge
G|----------------------|
D|----------------------|
A|11111/55555--1111-----|
E|------------------222-|
And the streets are paved..

Go back to Verse riff
            
Submit corrections

↑ Back to top | Tablatures and chords for acoustic guitar and electric guitar, ukulele, drums are parodies/interpretations of the original songs. You may use it for private study, scholarship, research or language learning purposes only