Home » L » Lou Reed »

Lou Reed - Kill Your Sons Bass

Artists:  A B C D E F G H I J K L M N O P Q R S T U V W X Y Z # 

Kill Your Sons Bass

(ver. 1) Click to play this song!
Lou Reed


Intro = Verse
G|----------------------------------------|
D|----------------------------------------|
A|-----------------------------2-2---2-4--|
E|--5--5------0-0---0-1-3--3--------------|

Chorus
G|-------------------------------------------------------------------
D|----5---5---5---5---7---7---7---7---5---5---5---5---7---7---7---7--
A|-------------------------------------------------------------------
E|--3---3---3---3---5---5---5---5---3---3---3---3---5---5---5---5----
  "Don't you know they're gonna ..."

G|------------------------------
D|------------------------------
A|------------------------------
E|--0---5-3/12~-----9----9--9---

G|-------------------------
D|-------------------------
A|---8--6--4--2------------
E|---------------5--3--0---
  "Until they run, run, run, ..."

After the chorus, slide into the first 'a' of the verse

Solo
G|---------------------------------------------------------
D|---------------------------------------------------------
A|---------------------------------------------------------
E|--0--5--0--5--0--5--0--5--0--5--0--5--0--5--0--5--0--5---
                                                  play as long as the
                                                  the solo goes on, 
                                                  stop with an 'a'

"Kill Your Sons" is one of the best Lou Reed-songs. My bass version is the "Live in concert-bass version". The bass of the studio version is much more difficult.
Enjoy this song and don't forget: ROCK AND ROLL CAN NEVER DIE!!!

             Christoph Kirchner
            (Bassist of LowLight)
            
Submit corrections

↑ Back to top | Tablatures and chords for acoustic guitar and electric guitar, ukulele, drums are parodies/interpretations of the original songs. You may use it for private study, scholarship, research or language learning purposes only