Home » L » Lou Reed »

Lou Reed - Banging On My Drum Chords

Artists:  A B C D E F G H I J K L M N O P Q R S T U V W X Y Z # 

Banging On My Drum Chords

(ver. 1) Click to play this song!
Lou Reed
[Intro]

         D                  A
e|----------------------------------------------------------------|
B|----------------------------------------------------------------|
G|----------------------------------------------------------------|
D|-7-7-9--7-7-7-9-------------------------------------------------| x4
A|-5-5-5--5-5-5-5-------7-7-9--7-7-7-9----------------------------|
E|----------------------5-5-5--5-5-5-5----------------------------|


[Verse]


         D                  E
e|----------------------------------------------------------------|
B|----------------------------------------------------------------|
G|----------------------------------------------------------------|
D|-7-7-9--7-7-7-9----9-9-11--9-9-9-11-----------------------------|
A|-5-5-5--5-5-5-5----7-7--7--7-7-7-7------------------------------|
E|----------------------------------------------------------------|

                A                                                   x4
e|----------------------------------------------------------------|
B|----------------------------------------------------------------|
G|----------------------------------------------------------------|
D|----------------------------------------------------------------|
A|--7-7-9--7-7-7-9---7-7-9--7-7-7-9-------------------------------|
E|--5-5-5--5-5-5-5---5-5-5--5-5-5-5-------------------------------|


[Verse]
                    D
I'm banging on my drum
E                  A
I'm banging on my drum
                    D
Then banging on my drum, boy
E                     A
And I'm having lots of fun
                    D
I'm banging on my drums, yeah
E                  A
I'm banging on my drums
                    D         E
I'm banging on my drum, now baby
                        A   D  A
and I'm having lots of fun


D  A (x4)


[Chorus]

                    D
I'm banging on my drum
E                  A
I'm banging on my drum
                    D
Then banging on my drum, boy
E                     A
And I'm having lots of fun
                    D      
I'm banging on my one, my one 
E               A
Yeah, yeah my drum
                    D
I'm banging on my one, my one 
E                A
Yeah, yeah my drum
                   D
I'm banging on my drums
E                      A        D
I'm banging on my drum, now baby
E                        A
and I'm having lots of fun            
Submit corrections

↑ Back to top | Tablatures and chords for acoustic guitar and electric guitar, ukulele, drums are parodies/interpretations of the original songs. You may use it for private study, scholarship, research or language learning purposes only