Home » L » Loudon Wainwright Iii »

Loudon Wainwright Iii - Swimming Song Tabs

Artists:  A B C D E F G H I J K L M N O P Q R S T U V W X Y Z # 

Swimming Song Tabs

(ver. 1) Click to play this song!
Loudon Wainwright Iii
Just a version that I feel sounds a bit closer to the actual song. It still consists of 
chords but I added some pizazz
capo on the second fret.
p=pulloff h=hammeron

Intro:
E|----------------------------------------------------------------------------------|
B|--3--1--1p0-----------------------------------------------------------------------|
G|-----------2--0----0h2-2h4--2-0---------0--0h2--0--0h2-2h4-2-0---0h2-2h4--2--0----|
D|--------------------------------2---0h2------------------------2----------------0-|
A|----------------------------------------------------------------------------------|
E|----------------------------------------------------------------------------------|


The rest of the song is repeated form this:
E|--3--3--3--3-0-0-----0h2-2-2-0-----------------------0h2-2-2-0------0h2-2-2--3-3-3-|
B|--3--3--3--3-3-3-----3---3-3-3----------------0h1-1--3---3-3-3------3---3-3--3-3-3-|
G|---------------------2---2-2-2-----------------------2---2-2-2------2---2-2--------|
D|--------------------------------2-2---0h2-2---2---2------------2-2-----------------|
A|--2--2--2--2-2-2----------------2-2---0h2-2---0h3-3------------2-2-----------2-2-2-|
E|--3--3--3--3-3-3-------------------------------------------------------------3-3-3-|


play around with the strumming pattern to find what you like.
also, first time writing tablature so I apologize in advance if it looks odd or is hard to follow.
            
Submit corrections

↑ Back to top | Tablatures and chords for acoustic guitar and electric guitar, ukulele, drums are parodies/interpretations of the original songs. You may use it for private study, scholarship, research or language learning purposes only