Home » L » Loudon Wainwright Iii »

Loudon Wainwright Iii - Grey In La Tabs

Artists:  A B C D E F G H I J K L M N O P Q R S T U V W X Y Z # 

Grey In La Tabs

(ver. 1) Click to play this song!
Loudon Wainwright Iii
Tuning: E Standard

e|---------------------------------------------------------------------------|
B|---------------------------------------------------------------------------|
G|---------------------------------------------------------------------------|
D|---------------------------------------------------------------------------|
A|--4s2---0----2s4----2----0-----------------5s7----9---7h9p7s5----7---------|
E|------------------------------4-----2s5------------------------------------|


e|----------------------------------------------------2s4---4----------------|
B|----------------------------------------------------3s5---5----------------|
G|---------------------------------2----2-----2------------------------------|
D|-----------------------------2h4---2h4-------------------------------------|
A|----4p0---4-----2---0------------------------------------------------------|
E|-----------------------4---------------------------------------------------|


e|----------------------------------------------4------------4---------------|
B|---5s7---5--------------------7---5-----------------7----------------------|
G|-------------7---6---------------------7--------------- -------------------|
D|----------------------7----------------------------------------------------|
A|---------------------------------------------------------------------------|
E|---------------------------------------------------------------------------|


e|-----5-----5-----0-----0---------------------------------------------------|
B|-----------------------------2-----2-----0----0----------------------------|
G|----------------------------------------------------2----------------------|
D|---------------------------------------------------------------------------|
A|---------------------------------------------------------------------------|
E|---------------------------------------------------------------------------|            
Submit corrections

↑ Back to top | Tablatures and chords for acoustic guitar and electric guitar, ukulele, drums are parodies/interpretations of the original songs. You may use it for private study, scholarship, research or language learning purposes only