Home » L » Los Tres »

Los Tres - No Me Falles Tabs

Artists:  A B C D E F G H I J K L M N O P Q R S T U V W X Y Z # 

No Me Falles Tabs

(ver. 1) Click to play this song!
Los Tres
[Intro]

(GUITARRA 2)  
 Esto lo toca toda la primera estrofa

E|--------------12---|-----------------------|------------12-12-12-12-12--|
B|---13--15--13------|----13---16/--15--13---|-13--15--13-----------------|
G|-------------------|-----------------------|----------------------------|
D|-------------------|-----------------------|----------------------------|
A|-------------------|-----------------------|----------------------------|
E|-------------------|-----------------------|----------------------------|

E|-------------------|
B|---16/--15--13-----|
G|-------------------|
D|-------------------|
A|-------------------|
E|-------------------|

(Guitarra 1)
 Esto lo toca la primera guitarra mientras hace la intro
 y en la primera estrofa

E|---------------------------|
B|---------------------------|
G|---------------------------|
D|------1--1p0---------------|
A|--3------------3--1--0--3--|
E|---------------------------|


[Verse 1]

     C      D#
No me Falles...
    C      D#
No me falles nunca 
     C      D#
No me Falles...
    C      D#
No me falles nunca 

      Dm                   G
No podria soportar ver a un hombre tomando tu mano
    Dm                G             F      G
No podria asistir ni un amigo muriendo en tu cama
  C       D#     
No Me falles...


[Verse 2]

 C     D#
No me falles...
  C       D#
No me falles nunca 

      Dm                  G
No podria soportar ver a un hombre tocando tus labios
     Dm                G                 F      G
No podria permitir que otra sombra muriera en tu cama
 C     D#
No me falles...


[Interlude]

(Guitarra 2)
Esto lo toca en todo el verso hasta el solo
que ahi es donde para de tocar el intermedio.

E|---------------------------|
B|--11---10---8---6----------|
G|---------------------------|
D|---------------------------|
A|---------------------------|
E|---------------------------|


[Chorus]

 D#          Dm            F
No tengo la vocacion de suicida asesino
  D#          Dm               F
Pero si es preciso afilo el cuchillo y me aplico
 D#            Dm           G        F    G
Si mato una mosca es muy posible que la entierre


[Solo]

(Guitarra 2)

                C                                 D#
E|--------------12----------------|-----------------------------|
B|---13--15--13-------------------|----13---16/--15--13---------|
G|--------------------------------|-----------------------------|
D|--------------------------------|-----------------------------|
A|--------------------------------|-----------------------------|
E|--------------------------------|-----------------------------|

               C                                     D#

E|-------------12-12-12-12-12------|-15---------------------------------|
B|--13--15--13---------------------|----------16/--15--13---------------|
G|---------------------------------|------------------------------------|
D|---------------------------------|------------------------------------|
A|---------------------------------|------------------------------------|
E|---------------------------------|------------------------------------|

             Dm                               G
E|-------------------------12---|---------------------12--15--|
B|-13--15--15--15--13--15-------|-15--15--15--13--15----------|
G|------------------------------|-----------------------------|
D|------------------------------|-----------------------------|
A|------------------------------|-----------------------------|
E|------------------------------|-----------------------------|

            Dm
E|-----------------17--15--17--17-|
B|--15--15--15--13----------------|
G|--------------------------------|
D|--------------------------------|
A|--------------------------------|
E|--------------------------------|

             G                         F       G          (C  D#  C)
E|---17--15------15--17--17--15-|--17-------------------------|
B|-----------17-----------------|------------16/--11----------|
G|------------------------------|-----------------------------|
D|------------------------------|-----------------------------|
A|------------------------------|-----------------------------|
E|------------------------------|-----------------------------|


[Interlude]

(Guitarra 2)
Esto lo que toca luego del solo y
en la primera estrofa.

E|---------------------------|
B|--11---10---8---6----------|
G|---------------------------|
D|---------------------------|
A|---------------------------|
E|---------------------------|


[Chorus]

 D#          Dm            F
No tengo la vocacion de suicida asesino
  D#          Dm               F
Pero si es preciso afilo el cuchillo y me aplico
 D#            Dm           G        F    G
Si mato una mosca es muy posible que la entierre


[Verse]

 C        D#
No me Falles...
  C          D#
No me falles nunca 
 C        D#
No me Falles...
  C          D#
No me falles nunca 

(Guitarra 2) 
 Esta es la parte final

E|--11--11--11-----------------|
B|--------------16/15----13----|
G|-----------------------------|
D|-----------------------------|
A|-----------------------------|
E|-----------------------------|


[Outro]

  C        D#
Nunca, nunca, nunca...
 C           D#
Y se acapara un leon
  C        D#    C
Del zoologico            
Submit corrections

↑ Back to top | Tablatures and chords for acoustic guitar and electric guitar, ukulele, drums are parodies/interpretations of the original songs. You may use it for private study, scholarship, research or language learning purposes only