Home » L » Lost And Found »

Lost And Found - Rachel Racinda Tabs

Artists:  A B C D E F G H I J K L M N O P Q R S T U V W X Y Z # 

Rachel Racinda Tabs

(ver. 1) Click to play this song!
Lost And Found
e|------------3-|-----------3------|
B|---0----------|--0-----------0---|
G|------0-------|-----0-----------0|  x2 This is the intro. Then the words start.
D|---------0----|--------0---------|
A|--------------|------------------|
E|---3----------|--3---------------|

e|------------3-|-------------------|---------------------------|
B|---0----------|--1--------0-------|--3--------1--------0------|
G|------0-------|-----0--------0----|-----0--------0--------0---|
D|---------0----|--------2--------2-|--------2--------2--------2|
A|--------------|--3----------------|---------------------------|
E|---3----------|-------------------|---------------------------|            
Submit corrections

↑ Back to top | Tablatures and chords for acoustic guitar and electric guitar, ukulele, drums are parodies/interpretations of the original songs. You may use it for private study, scholarship, research or language learning purposes only