Home » L » Los Lonely Boys »

Los Lonely Boys - Hollywood Tabs

Artists:  A B C D E F G H I J K L M N O P Q R S T U V W X Y Z # 

Hollywood Tabs

(ver. 2) Click to play this song!
Los Lonely Boys
(Intro)
Los Lonely Boys

here is another great Los Lonely Boys song, hope you enjoy.

tune 1/2 step down
(low to high) Eb, Ab, Db, Gb, Bb, Eb

gtr. 1 (acoustic)
 t......                         t......
e-9---9---11--11--11-11-11-11p9---9---9---11--11--11-11-11-11p9---x--x------|
b-9---9---9---9---9--9--9--9------9---9---9---9---9--9--9--9------x--x------|
g-9---9---9---9---9--9--9--9------9---9---9---9---9--9--9--9------x--x------|
d-11--11--11--11--11-11-11-11-----11--11--11--11--11-11-11-11-----x--x------|
a-x---x---------------------------x---x-------------------------------------|
e-9---9---------------------------9---9-------------------------------------|
t=thumb on 6th string

gtr. 2 (acoustic)

e---------------------------------------------------------------------------|
b---------------------------------------------------------------------------|
g---------------------------------------------------------------------------|
d----------------------------------------------------9---9h11p9----9--------|
a-----------------------------------------------9/11------------11----------|
e---------------------------------------------------------------------------|
gtr.
t......                        t.............
e-7--7--x-x-x-7---7-7-7-7---7--7--7---7--7--7-------------------------------|
b-7--7--x-x-x-7---7-7-7-7---7--7--7---7--7--7-------------------------------|
g-8--8--x-x-x-8h9-9-9-9-9p8-8--8--8---8--8--8-------------------------------|
d-9--9--x-x-x-9---9-9-9-9---9--9--9---9--9--9--------9----9--9--------------|
a-x--x-------------------------x--x---x--x--x---9/11---11-------11----------|
e-7--7-------------------------7--7---7--7--7-------------------------------|
gtr. 2
e------------------------------------------------------------------------12--|p
b---------------------------------------------------------------12-14p11-----|
g----8h9p8----------------------------8--9p8--------------11-13--------------|
d-11---------9--9----------------9-11--------11-9--9-11/13-------------------|
a-----------------------11---------------------------------------------------|
e----------------------------------------------------------------------------|
gtr.1
t.........                              t.......
e-9------9--11--11---11-11-11-11p9-------9------9--11---11---11-11-11-11p9--|
b-9------9--9---9----9--9--9--9----------9------9--9----9----9--9--9--9-----|
g-9------9--9---9----9--9--9--9----------9------9--9----9----9--9--9--9-----|
d-11-----11-11--11---11-11-11-11---------11-----11-11---11---11-11-11-11----|
a-x------x-------------------------------x------x---------------------------|
e-9------9-------------------------------9------9---------------------------|
gtr. 2
e11------------------11-12--14--12--11--------------------7------7---7----7-|
b---14--12---12~~~~---------------------14--12--12--------------------------|
g--------------------------------------------------13-----8h9----8---8h9--8-|
d---------------------------------------------------------------------------|
a---------------------------------------------------------------------------|
e---------------------------------------------------------------------------|
 gtr. 1 t.....     t                            t...      t
ex--x---7----7-x-x-7--------7---7---7---7---7---7--7--x-x-7---7--7----7---x-|
bx--x---7----7-x-x-7--------7---7---7---7---7---7--7--x-x-7---7--7----7---x-|
gx--x---8----8-x-x-8--------8---8---9p8-8---8---8--8--x-x-8---8--9p8--9p8-x-|
dx--x---9----9-x-x-9--------9---9---9---9---9---9--9--x-x-9---9--9----9---x-|
a-------x----x-----x----------------------------x--x------x-----------------|
e-------7----7-----7----------------------------7--7------7-----------------|

well thats it enjoy.
            
Submit corrections

↑ Back to top | Tablatures and chords for acoustic guitar and electric guitar, ukulele, drums are parodies/interpretations of the original songs. You may use it for private study, scholarship, research or language learning purposes only