Home » L » Los Lonely Boys »

Los Lonely Boys - Crazy Dream Tabs

Artists:  A B C D E F G H I J K L M N O P Q R S T U V W X Y Z # 

Crazy Dream Tabs

(ver. 1) Click to play this song!
Los Lonely Boys
(Intro)
  -------------------------------------------------------------------------------
                             Crazy Dream - Los Lonely boys
-------------------------------------------------------------------------------

Tuning:Standard

This guy has a real unique strum in general, and it can be seen in this song.
The notes are a down, the muted parts are up. So its all one motion, but its tricky,





  E |--x---x---x---x---x---x---x----|x---x---x---x---x--x---x----x-x---x----|
  B |--x---x---x---x---x---x---x----|x---x---x---x---x--x---x----x-x---x----|
  G |--x---x---x---x---x---x---x----|x---x---x---x---x--x-8-x-8--x-x-8-x-8--|
  D |--------5---9------------------|---------------------7---7------7---7--|
  A |7---7-------------------6---9--|----------3---7------6---6------6---6--|
  E |----------------7---7----------|--5---5--------------7---7------7---7--|


For all you technical types, this strum is called the Texas Roundhouse. It was made
famous by Stevie Ray Vaughan, whom is a big inspiration for Los Lonely Boys. A good
exmple is in "Pride and Joy" by Stevie.
            
Submit corrections

↑ Back to top | Tablatures and chords for acoustic guitar and electric guitar, ukulele, drums are parodies/interpretations of the original songs. You may use it for private study, scholarship, research or language learning purposes only