Home » L » Los Fabulosos Cadillacs »

Los Fabulosos Cadillacs - Cadillacs Tabs

Artists:  A B C D E F G H I J K L M N O P Q R S T U V W X Y Z # 

Cadillacs Tabs

(ver. 1) Click to play this song!
Los Fabulosos Cadillacs


como este programa es muy b?sico, no tiene para 4
lineas de las cuerdas del bajo. As? que la sexta l?nea
de cada estrofa es E, la quinta, A, la cuarta D y la
tercera G
as I?m using and old program, it doesn?t have the 4
chords of the bass, so the sixth line is E, the fifth A,
the fourth D and the thirth G

-------------|-------------|--------------------------------------------------|
-------------|-------------|--------------------------------------------------|
-------------|-------------|--------------------------------------------------|
-2-----------|-2-----------|--------------------------------------------------|
----5--6--3--|----5--6--3--|--------------------------------------------------|
-------------|-------------|--------------------------------------------------|
 after the intro

------------------------------------------------------------------------------|
------------------------------------------------------------------------------|
------------------------------------------------------------------------------|
-------5------------5------------7--5-3--------7-5-----8-----------5----------|
-3--6-----3---3--6-----5---5--8---------5---3------7-5---7---3--6-----5-------|
------------------------------------------------------------------------------|


------------------------------------------------------------------------------|
------------------------------------------------------------------------------|
------------------------------------------------------------------------------|
-------7---------------------------------------------------------3--5--3------|
-5--8-----8---3--6--5------------5-------------55-3-----------5-----------5-3-|
-----------------------3---3--6------5---3--6-------5---3--6------------------|


------------------------------------------------------------------------------|
------------------------------------------------------------------------------|
------------------------------------------------------------------------------|
---------5-----5--3---------------5------------5------------5--3--------------|
---3--6-----5--------6--3---3--6-----6---3--6-----5---3--6--------6--3--------|
------------------------------------------------------------------------------|


------------------------------------------------------------------------------|
------------------------------------------------------------------------------|
------------------------------------------------------------------------------|
-----------------------------------7------------------------------------------|
----3-1---1-3----------5-----5--8-----7------3---------8------7----7----------|
-0------3-----3---3--6---5----------------5-----6--3------7557--557--3-5------|


----------------------------------------|-------------------------------------|
----------------------------------------|-------------------------------------|
----------------------------------------|-------------------------------------|
----------------------------------------|-------5---------------5-------------|
-----------------------5------5--3------|-3--6-----3---3--6--5----------------|
-3-5-55797765-3--3--6-----5--------6--3-|-------------------------------------|
                                           the same as the beginning

------------------------------------------------------------------------------|
------------------------------------------------------------------------------|
------------------------------------------------------------------------------|
-------7-5-3--------7-5-3---7---------5-----------5--5-3----------------------|
-5--8--------5---3--------5-----3--6----5---3--6---------5--3-----------------|
--------------------------------------------------------------6--5--3---------|


------------------------------------------------------------------------------|
------------------------------------------------------------------------------|
------------------------------------------------------------------------------|
------------------------------------3-5-3-------------5------5--3-------------|
-------55------------5------------5-------6-3---3--6-----5---------6--3-------|
-3--6------5---3--6-----3---3--6----------------------------------------------|


------------------------------------------------------------------------------|
------------------------------------------------------------------------------|
------------------------------------------------------------------------------|
------------------------------------------------------------------------------|
-9-------7/8-------7-------5/6-------5-------3/4-------3--4--3--7--5----------|
------------------------------------------------------------------------------|
  ending
            
Submit corrections

↑ Back to top | Tablatures and chords for acoustic guitar and electric guitar, ukulele, drums are parodies/interpretations of the original songs. You may use it for private study, scholarship, research or language learning purposes only