Home » L » Los Campesinos »

Los Campesinos - Cemetery Gaits Chords

Artists:  A B C D E F G H I J K L M N O P Q R S T U V W X Y Z # 

Cemetery Gaits Chords

(ver. 1) Click to play this song!
Los Campesinos
Tuning: Standard


Intro / Verse

Chords
e|-----0--------0------------------------------------------------------------|
B|-----0--------0------------------------------------------------------------|
G|-----6--------6------------------------------------------------------------|
D|-----6--------6------------------------------------------------------------|
A|--------------0------------------------------------------------------------|
E|-----7---------------------------------------------------------------------|

Keyboard arpeggio melody (there are tons of ways to play this, experiment!)
e|-----------------------------------12---16--------------------------------|
B|-----------------------------14-------------------------------------------|
G|------------------13---16-------------------------------------------------|
D|--------14---16-----------------------------------------------------------|
A|---16---------------------------------------------------------------------|
E|--------------------------------------------------------------------------|


Chorus / Bridge

Chords
e|-----0-------0-------0-------0---------------------------------------------|
B|-----9-------0-------9-------0------4--------------------------------------|
G|-----x-------6-------x-------1------4--------------------------------------|
D|-----11------6-------11------2------4--------------------------------------|
A|-----0---------------0-------2------6--------------------------------------|
E|-------------7---------------0---------------------------------------------|

Melody
e|-----------------------------------|---------------------------------------|
B|--9--9--9---7-9--9--7--9b10br9--7--|--9--9--9---7-9--9--7--9--7------------|
G|-----------------------------------|-----------------------------9--6------|
D|-----------------------------------|---------------------------------------|
A|-----------------------------------|---------------------------------------|
E|-----------------------------------|---------------------------------------|

e|-----------------------------------|---------------------------------------|
B|--12-12-12--9-12-12--9--12b14br14--|--12-12-12--9--12-12--9--12-10-9-------|
G|-----------------------------------|---------------------------------11-9--|
D|-----------------------------------|---------------------------------------|
A|-----------------------------------|---------------------------------------|
E|-----------------------------------|---------------------------------------|
            
Submit corrections

↑ Back to top | Tablatures and chords for acoustic guitar and electric guitar, ukulele, drums are parodies/interpretations of the original songs. You may use it for private study, scholarship, research or language learning purposes only