» » »

Lordi - Were Not Bad For The Kids Were Worse Tabs

Artists:  A B C D E F G H I J K L M N O P Q R S T U V W X Y Z # 

Were Not Bad For The Kids Were Worse Tabs

(ver. 1) Click to play this song!
Lordi
 Rating:
2.9/5 (27 votes)

 Were Not Bad For The Kids Were Worse  lessons Tabs too difficult? Try these video lessons and learn fast
 
                Intro
D|----------------|----------------|----------------|----------------|
A|----------------|----------------|----------------|----------------|
F|----------------|----------------|----------------|----------------|
C|----------------|----------------|----------------|5-------7--8--9-|
G|----------------|----------------|----------------|5-------7--8--9-|
D|0-76076065065065|0-76076065065065|0-76076065065065|3-3333335--6--7-|
    pm------------   pm------------   pm------------   pm----
D|----------------|----------------|----------------|----------------|
A|----------------|----------------|----------------|----------------|
F|----------------|----------------|----------------|----------------|
C|----------------|----------------|----------------|5-------7-------|
G|----------------|----------------|----------------|5-------7-------|
D|0-76076065065065|0-76076065065065|0-76076065065065|3-3333335-------|
    pm------------   pm------------   pm------------   pm----

Verse 1
D|----------------|----------------|----------------|----------------|
A|----------------|----------------|----------------|----------------|
F|----------------|----------------|----------------|5-------7--8--9-|
C|----------------|----------------|----------------|5-------7--8--9-|
G|0-76076065065065|0-76076065065065|0-76076065065065|3-3333335--6--7-|
D|----------------|----------------|----------------|----------------|
    pm------------   pm------------   pm-----------    pm----

D|----------------|----------------|----------------|----------------|
A|----------------|----------------|----------------|----------------|
F|----------------|----------------|----------------|5-------7-------|
C|----------------|----------------|----------------|5-------7-------|
G|0-76076065065065|0-76076065065065|0-76076065065065|3-3333335-------|
D|----------------|----------------|----------------|----------------|
    pm------------   pm------------   pm-----------    pm----

Pre-Chorus
D|----------------|----------------|-----------------|------------------|
A|----------------|----------------|-----------------|-----9---12---x---|
F|----------------|----------------|5---7---9---11---|12---9---12---x---|
C|4-4-4-4-4-4-4-4-|--------9-9-9-9-|5---7---9---11---|12---7---10---x---|
G|2-2-2-2-2-2-2-2-|5-5-5-5-7-7-7-7-|3---5---7---9----|10----------------|
D|----------------|3-3-3-3---------|-----------------|------------------|
  pm------------------------------

link
D|----------------|
A|----------------|
F|7-----7-----7---|
C|---6-----6------|
G|----------------|
D|----------------|

Chorus
D|----------------|----------------|-----------------|----------------|
A|----------------|----------------|-----------------|----------------|
F|2---------------|5-----7-----9---|10---------------|7-------9-------|
C|2---------------|5-----7-----9---|10---------------|7-------9-------|
G|0---------------|3-----5-----7---|8----------------|5-------7-------|
D|----------------|----------------|-----------------|----------------|

D|----------------|----------------|-----------------|----------------|
A|----------------|----------------|-----------------|----------------|
F|2---------------|5-----7-----9---|10---------------|7---------------|
C|2---------------|5-----7-----9---|10---------------|7---------------|
G|0---------------|3-----5-----7---|8----------------|5---------------|
D|----------------|----------------|-----------------|----------------|
                                                      stacc.

Pre-Verse
D|----------------|----------------|----------------|----------------|
A|----------------|----------------|----------------|----------------|
F|----------------|----------------|----------------|----------------|
C|----------------|----------------|----------------|5-------7-------|
G|----------------|----------------|----------------|5-------7-------|
D|0-76076065065065|0-76076065065065|0-76076065065065|3-3333335-------|
    pm------------   pm------------   pm------------   pm----

Verse 2
D|----------------|----------------|----------------|----------------|
A|----------------|----------------|----------------|----------------|
F|----------------|----------------|----------------|5-------7--8--9-|
C|----------------|----------------|----------------|5-------7--8--9-|
G|0-76076065065065|0-76076065065065|0-76076065065065|3-3333335--6--7-|
D|----------------|----------------|----------------|----------------|
    pm------------   pm------------   pm-----------    pm----

D|----------------|----------------|----------------|----------------|
A|----------------|----------------|----------------|----------------|
F|----------------|----------------|----------------|5-------7-------|
C|----------------|----------------|----------------|5-------7-------|
G|0-76076065065065|0-76076065065065|0-76076065065065|3-3333335-------|
D|----------------|----------------|----------------|----------------|
    pm------------   pm------------   pm-----------    pm----

Pre-Chorus
D|----------------|----------------|-----------------|------------------|
A|----------------|----------------|-----------------|-----9---12---x---|
F|----------------|----------------|5---7---9---11---|12---9---12---x---|
C|4-4-4-4-4-4-4-4-|--------9-9-9-9-|5---7---9---11---|12---7---10---x---|
G|2-2-2-2-2-2-2-2-|5-5-5-5-7-7-7-7-|3---5---7---9----|10----------------|
D|----------------|3-3-3-3---------|-----------------|------------------|
  pm------------------------------

link
D|----------------|
A|----------------|
F|7-----7-----7---|
C|---6-----6------|
G|----------------|
D|----------------|

Chorus
D|----------------|----------------|-----------------|----------------|
A|----------------|----------------|-----------------|----------------|
F|2---------------|5-----7-----9---|10---------------|7-------9-------|
C|2---------------|5-----7-----9---|10---------------|7-------9-------|
G|0---------------|3-----5-----7---|8----------------|5-------7-------|
D|----------------|----------------|-----------------|----------------|

D|----------------|----------------|-----------------|----------------|
A|----------------|----------------|-----------------|----------------|
F|2---------------|5-----7-----9---|10---------------|7---------------|
C|2---------------|5-----7-----9---|10---------------|7---------------|
G|0---------------|3-----5-----7---|8----------------|5---------------|
D|----------------|----------------|-----------------|----------------|
                                                      stacc.

D|----------------|
A|----------------|
F|----------------|
C|-----BREAK------|
G|----------------|
D|----------------|

Link
D|----------------|----------------|----------------|----------------|
A|----------------|----------------|----------------|----------------|
F|----------------|----------------|----------------|----------------|
C|2-----2-----2---|--2-2-----------|2-----2-----2---|--2-2-----------|
G|2-----2-----2---|--2-2-----------|2-----2-----2---|--2-2-----------|
D|0-----0-----0---|--0-0-----------|0-----0-----0---|--0-0-----------|

Middle 8
D|----------------|----------------|----------------|----------------|
A|----------------|----------------|----------------|----------------|
F|----------------|----------------|----------------|----------------|
C|5--5--5---5-5-33|5--5--5---5-5-33|5--5--5---5-5-33|5--5--5---5-5-33|
G|5--5--5---5-5-33|5--5--5---5-5-33|5--5--5---5-5-33|5--5--5---5-5-33|
D|3--3--3---3-3-11|3--3--3---3-3-11|3--3--3---3-3-11|3--3--3---3-3-11|
  pm-----------------------------------------------------------------

D|----------------|----------------|----------------|----------------|
A|----------------|----------------|----------------|----------------|
F|----------------|----------------|----------------|----------------|
C|5--5--5---5-5-33|5--5--5---5-5-33|5--5--5---5-5-33|5-------7--8--9-|
G|5--5--5---5-5-33|5--5--5---5-5-33|5--5--5---5-5-33|5-------7--8--9-|
D|3--3--3---3-3-11|3--3--3---3-3-11|3--3--3---3-3-11|3-------5--6--7-|
  pm------------------------------------------------

Solo (- = 1/16th may not, and probably won't apply. You'll just have to listen to the 
song.)
D|---------------------|------------------------|-----------------------------|
A|/5-----8p5-(b&ph)8---|------------------------|------------3b(4)b3p1-3p1----|
F|---------------------|7p5h7p5h8p5h8p5---------|---------0h2--------------2p0|
C|---------------------|----------------(PH)7---|------0h2--------------------|
G|---------------------|------------------------|---0h2-----------------------|
D|---------------------|------------------------|0h3--------------------------|

D|----------------------------------------------|
A|----------------------------------------------|
F|12p0h12p0h12p0h11p0h11p0h11p0h10p0h10p0(b&ph)9|
C|----------------------------------------------|
G|----------------------------------------------|
D|----------------------------------------------|

D|-------------10-10-10---|--------------9b10b9--7--|
A|-------------10-10-10-12|-------------10b12b10-8--|
F|------8b10b8------------|------8b10b8-------------|
C|---7h9------------------|---7h9-------------------|
G|7h9---------------------|7h9----------------------|
D|------------------------|-------------------------|

D|-------------10-10-10---|-------------------------|
A|------8b10b8-10-10-10-12|17------17----17----17---|
F|---7h9------------------|19b21v-(21)v-(21)v-(21)v-|
C|7h9---------------------|-------------------------|
G|------------------------|-------------------------|
D|------------------------|-------------------------|

link
D|----------------|
A|----------------|
F|7-----7-----7---|
C|---6-----6------|
G|----------------|
D|----------------|

Outro Chorus
D|----------------|----------------|-----------------|----------------|
A|----------------|----------------|-----------------|----------------|
F|2---------------|5-----7-----9---|10---------------|7-------9-------|
C|2---------------|5-----7-----9---|10---------------|7-------9-------|
G|0---------------|3-----5-----7---|8----------------|5-------7-------|
D|----------------|----------------|-----------------|----------------|

D|----------------|----------------|-----------------|----------------|
A|----------------|----------------|-----------------|----------------|
F|2---------------|5-----7-----9---|10---------------|7---------------|
C|2---------------|5-----7-----9---|10---------------|7---------------|
G|0---------------|3-----5-----7---|8----------------|5---------------|
D|----------------|----------------|-----------------|----------------|
                                                      stacc.


D|----------------|----------------|-----------------|----------------|
A|----------------|----------------|-----------------|----------------|
F|2---------------|5-----7-----9---|10---------------|7-------9-------|
C|2---------------|5-----7-----9---|10---------------|7-------9-------|
G|0---------------|3-----5-----7---|8----------------|5-------7-------|
D|----------------|----------------|-----------------|----------------|

D|----------------|----------------|-----------------|----------------|
A|----------------|----------------|-----------------|----------------|
F|2---------------|5-----7-----9---|10---------------|----------------|
C|2---------------|5-----7-----9---|10---------------|7-7-7-75-7-7----|
G|0---------------|3-----5-----7---|8----------------|7-7-7-75-7-7----|
D|----------------|----------------|-----------------|5-5-5-53-5-5----|            
Submit corrections


        Were Not Bad For The Kids Were Worse  lessons Hard to play? Try these video lessons and learn fast Were Not Bad For The Kids Were Worse  lessons
        
↑ Back to top | Tablatures and chords for acoustic guitar and electric guitar, ukulele, drums are parodies/interpretations of the original songs. You may use it for private study, scholarship, research or language learning purposes only