» » »

Looming - Output Tabs

Artists:  A B C D E F G H I J K L M N O P Q R S T U V W X Y Z # 

Output Tabs

(ver. 1) Click to play this song!
Looming
 Rating:
3.1/5 (23 votes)

 Output  lessons Tabs too difficult? Try these video lessons and learn fast
 
                Verse
E|---------0-----------0----------|---------5---------5-----5------|
B|-----3-----3---3-------3--------|-----7-----7---7-----7-----7----|
G|-4-----4-----4-----4-------4/6--|-7-----7-----7---------7-----7--|
D|--------------------------------|--------------------------------|
A|--------------------------------|--------------------------------|
E|--------------------------------|--------------------------------|

E|---------0-----------0----------|---------0---------0-----0------|
B|-----3-----3---3-------3--------|-----2-----2---2-----2-----2----|
G|-4-----4-----4-----4-------4/6--|-2-----2-----2---------2-----2--|
D|--------------------------------|--------------------------------|
A|--------------------------------|--------------------------------|
E|--------------------------------|--------------------------------|

E|---------0-----------0----------|---------5---------5-----5------|
B|-----3-----3---3-------3--------|-----7-----7---7-----7-----7----|
G|-4-----4-----4-----4-------4/6--|-7-----7-----7---------7-----7--|
D|--------------------------------|--------------------------------|
A|--------------------------------|--------------------------------|
E|--------------------------------|--------------------------------|

E|---------0-----------0----------|---------0----------------------|
B|-----3-----3---3-------3--------|-----2------2-------------------|
G|-4-----4-----4-----4-------4/6--|-2-----2-------2----------------|Section
D|--------------------------------|--------------------------------|x2
A|--------------------------------|--------------------------------|
E|--------------------------------|--------------------------------|

Chorus (strumming pattern not shown)
E|--------------------------------|--------------------------------|
B|--------------------------------|--------------------------------|
G|-4------------------------------|-2------------------------------|
D|-4------------------------------|-2------------------------------|
A|-2------------------------------|-0------------------------------|x2
E|--------------------------------|--------------------------------|

Verse same as above x1
Chorus same as above x4

Bridge
E|--------------------------------|--------------------------------|
B|--------------------------------|--------------------------------|
G|--------------------------------|--------------------------------|
D|--------------------------------|--------------------------------|
A|--------------------------------|--------------------------------|x2
E|\7-7-7-7-7-7-7\-/7-7-7-7-7-5~~--|\7-7-7-7-7-7-7\-/7-7-7-7-7-2----|

E|-5h7p5-----------5h7p5----------|--------------------------------|
B|-------5h7-------------5--------|-3------------(3)\2-------------|
G|--------------------------------|--------------------------------|
D|--------------------------------|--------------------------------|
A|--------------------------------|--------------------------------|
E|--------------------------------|--------------------------------|

E|---------0-----------0----------|/7---5--------------------------|
B|-----3-----3---3-------3--------|-------5h7----------------------|
G|-4-----4-----4-----4------------|--------------------------------|
D|--------------------------------|--------------------------------|
A|--------------------------------|--------------------------------|
E|--------------------------------|--------------------------------|

E|---------0-----------0----------|---------5---------5-----5------|
B|-----3-----3---3-------3--------|-----7-----7---7-----7-----7----|
G|-4-----4-----4-----4-------4/6--|-7-----7-----7---------7-----7--|
D|--------------------------------|--------------------------------|
A|--------------------------------|--------------------------------|
E|--------------------------------|--------------------------------|

E|---------0-----------0----------|---------0----------------------|
B|-----3-----3---3-------3--------|-----2------2-------------------|
G|-4-----4-----4-----4-------4/6--|-2-----2-------2----------------|
D|--------------------------------|--------------------------------|
A|--------------------------------|--------------------------------|
E|--------------------------------|--------------------------------|

            
Submit corrections


        Output  lessons Hard to play? Try these video lessons and learn fast Output  lessons
        
↑ Back to top | Tablatures and chords for acoustic guitar and electric guitar, ukulele, drums are parodies/interpretations of the original songs. You may use it for private study, scholarship, research or language learning purposes only