» » »

Looming - Eat Tabs

Artists:  A B C D E F G H I J K L M N O P Q R S T U V W X Y Z # 

Eat Tabs

(ver. 1) Click to play this song!
Looming
 Rating:
3.9/5 (21 vote)

 Eat  lessons Tabs too difficult? Try these video lessons and learn fast
 
                Intro - drums only

Verse
E|-----------------------------|--------------------------------|
B|-----------------------------|--------------------------------|
G|-----------------------------|--------------------------------|
D|-------5br-----------5br-----|---5---5/8-8\5---5---8h10p8-5(8)|
A|---6-------6-----6-------6---|-6---6---------6---6------------|x3
E|-4---4------(4)4---4------(4)|--------------------------------|

E|-----------------------------|--------------------------------|
B|-----------------------------|---------------8----------------|
G|-----------------------------|---------------8----------------|
D|-------5br-----------5br-----|---5---5/8-8\5-x----------------|
A|---6-------6-----6-------6---|-6---6---------6----------------|
E|-4---4------(4)4---4------(4)|--------------------------------|

Chorus (strumming for chords not shown)
Guitar 1
E|----------------------------|-----------------------------|
B|----------------------------|-8-------------6-------------|
G|----------------------------|-8-------------7-------------|
D|-5--------------------------|-x-------------0-------------|
A|-6--------------------------|-6-------------x-------------|x2
E|-4--------------------------|---------------6-------------|
Guitar 2
E|----------------------------|-------6-------------6-------|
B|----------------------------|---8-----8-------6-----6-----|
G|----------------------------|-8---8-----8---7---7-----7---|
D|----------------------------|-----------------------------|
A|----------------------------|-----------------------------|x2
E|----------------------------|-----------------------------|

Verse as above
Chorus as above

Bridge/outro - bass only for 4 bars
E|-----------------------------|--------------------------------|
B|-----------------------------|--------------------------------|Repeat
G|-----------------------------|--------------------------------|to
D|-------5br-----------5br-----|---5---5/8-8\5---5---8h10p8-5(8)|fade
A|---6-------6-----6-------6---|-6---6---------6---6------------|
E|-4---4------(4)4---4------(4)|--------------------------------|

            
Submit corrections


        Eat  lessons Hard to play? Try these video lessons and learn fast Eat  lessons
        
↑ Back to top | Tablatures and chords for acoustic guitar and electric guitar, ukulele, drums are parodies/interpretations of the original songs. You may use it for private study, scholarship, research or language learning purposes only