» » »

Longwave - Ghosts Around You Tabs

Artists:  A B C D E F G H I J K L M N O P Q R S T U V W X Y Z # 

Ghosts Around You Tabs

(ver. 2) Click to play this song!
Longwave
 Rating:
4/5 (4 votes)


 Ghosts Around You lessons Tabs too difficult? Try these video lessons and learn fast
 
                
Tuning: Standard



This part repeats throughout the entire song pretty much.
Note: Riff A
e|-----14-14----14----14-------14-14----14----14-----------------------------|
B|--13-------13----13----13-13-------13----13----13--------------------------|
G|---------------------------------------------------------------------------|
D|---------------------------------------------------------------------------|
A|---------------------------------------------------------------------------|
E|---------------------------------------------------------------------------|

This part comes in during the intro. Play twice
Note: Riff B
e|---------------------------------------------------------------------------|
B|----13----------------13-------------13----------------13----13------------|
G|-13----13-12-10----13----13-12----13----13-12-10----13----15---------------|
D|---------------------------------------------------------------------------|
A|---------------------------------------------------------------------------|
E|---------------------------------------------------------------------------|
Directly after is a slightly modified form to end this riff.
e|---------------------------------------------------------------------------|
B|----13----------------13-------------13------------13----------------------|
G|-13----13-12-10----13----13-12----13----13-12-10---------------------------|
D|---------------------------------------------------------------------------|
A|---------------------------------------------------------------------------|
E|---------------------------------------------------------------------------|

Repeat this three times
Note: Riff C
e|---------------------------------------------------------------------------|
B|----6-4----6-4----6-4---6-4------------------------------------------------|
G|--5------5------3-----3----------------------------------------------------|
D|---------------------------------------------------------------------------|
A|---------------------------------------------------------------------------|
E|---------------------------------------------------------------------------|
Simultaneously played with heavy distortion is this: (Riff D)
e|---------------------------------------------------------------------------|
B|--13---------13------------------------------------------------------------|
G|-----13/15-----------------------------------------------------------------|
D|---------------------------------------------------------------------------|
A|---------------------------------------------------------------------------|
E|---------------------------------------------------------------------------|
followed by Riff A and then....Riff E 8 times
e|---------------------------------------------------------------------------|
B|------6-4-6----------------------------------------------------------------|
G|--3/5----------------------------------------------------------------------|
D|---------------------------------------------------------------------------|
A|---------------------------------------------------------------------------|
E|---------------------------------------------------------------------------|

Now, Riff D and Riff C are played simultaneously for 8 measures followed by Riff
A and B for 4 measures. Riff E comes in next with Riff D afterwards. Riff E comes
back after D.

Riff A and B follow when everything quiets down. Riff E comes in quietly after.
You should recognize all the riffs by now. Listen to it more than once if you
need to get down the order. Solo time though now.



e|---------------------------------------------------------------------------|
B|---------------------------------------------------------------------------|
G|-------10---10------10---10------10---10------10---10----------------------|
D|--8/10----8----8/10----8----8/10----8----8/10----8-------------------------|
A|---------------------------------------------------------------------------|
E|---------------------------------------------------------------------------|

e|---------------------------------------------------------------------------|
B|---------------------------------------------------------------------------|
G|--17------------------------------------------20-20-20----20-20-20-22------|
D|-------18-20-20-18-18\15/18/20-20\18-18\15-20----------20------------------|
A|---------------------------------------------------------------------------|
E|---------------------------------------------------------------------------|

Finish of with riff E followed by riff A and there you have it 
all done. Work out the tab yourself and the timings. The song 
overall is not difficult but it may take a few times to get 
it down perfect. Good luck!

| /  slide up
| \  slide down
| h  hammer-on
| p  pull-off
| ~  vibrato
| +  harmonic
| x  Mute note
===============================================================================
            
Submit corrections



        Ghosts Around You lessons Hard to play? Try these video lessons and learn fast Ghosts Around You lessons
        
↑ Back to top | Tablatures and chords for acoustic guitar and electric guitar, ukulele, drums are parodies/interpretations of the original songs. You may use it for private study, scholarship, research or language learning purposes only