» » »

Long Beach Dub All-Stars - Rosarito Tabs

Artists:  A B C D E F G H I J K L M N O P Q R S T U V W X Y Z # 

Rosarito Tabs

(ver. 1) Click to play this song!
Long Beach Dub All-Stars
 Rating:
4/5 (4 votes)

 Rosarito lessons Tabs too difficult? Try these video lessons and learn fast
 
                

Intro
    G        D        C        A#    F G A 
e|--3----------------------------------------|
B|--3--------7--------5--------3-------------|
G|--4--------7--------5--------3-------------|
D|--5--------7--------5--------3-----3-5-7---|
A|--5--------5--------3--------1-----3-5-7---|
E|--3--------------------------------1-3-5---|
    Well I drove down ...

Intro Solo:                                       
e|--------------------------------------------------------------|
B|--------------8------8-8---8-8--------------------------------|
G|--------7-7h9---9----7-7-h-9-7--------------------------------|
D|-5-7-7/9-----------------------9p7-5-5--------5--------3-4-5--|
A|----------------------------------------3-5/7---5-3-3--3-4-5--|
E|-------------------------------------------------------1-2-3--|

Verse : (reggae Upstroke)  G  D  C  A#  F F# G

Chorus: chorus starts out with: F F# G

1st time                           2nd Time       <----- w/ distortion --->
    Bm   Em    D    C                Bm Em D  C    A A# Em    F F# G F F# G
e|--7----------------------------||--7-------------------------------------|
B|--7----9-----7----5------------||--7-------------------------------------|
G|--7----9-----7----5------------||--7--9--7--5----------------------------|
D|-------9-----7----5------------||-----9--7--5----5-6-7/-----3-4-5--3-4-5-|
A|-------7-----5----3------------||-----7--5--3----5-6-7/-----3-4-5--3-4-5-|
E|-------------------------------||----------------7-8-9/-----1-2-3--1-2-3-|
          popped into my head...   for everyone...      ^== slide down the fret board               

there are some fills on the second time the intro solo
is played They are placed in order and I put the 
time where they occur and the lyrics so if you don't 
know what I'm talking about you are an idiot

starts at 1:34
            
e -10-------
B ---10^-8--

Baja California...

starts at 1:36

e -15-------
B ---15^----

Ohhh Lord...

starts at 1:38

B ---10^r--10^r--
 
Mexico...
                                                       
Fast ska part: same as chorus


you really did'nt expect the end solo, did you?...peace...
            
Submit corrections


        Rosarito lessons Hard to play? Try these video lessons and learn fast Rosarito lessons
        
↑ Back to top | Tablatures and chords for acoustic guitar and electric guitar, ukulele, drums are parodies/interpretations of the original songs. You may use it for private study, scholarship, research or language learning purposes only