» » »

London Grammar - Strong Tabs

Artists:  A B C D E F G H I J K L M N O P Q R S T U V W X Y Z # 

Strong Tabs

(ver. 1) Click to play this song!
London Grammar
 Rating:
4.3/5 (15 votes)

 Strong lessons Tabs too difficult? Try these video lessons and learn fast
 
                [Intro]

  Am                   G                    D                    D
e|--------------------|--------------------|--------------------|--------------------|
B|--1--1--------------|--0--0--------------|--------------------|--------------------|
G|--------------------|--------------------|--2--2--------------|--2--2--------------|
D|--2--2--------------|--0--0--------------|--0--0--------------|--0--0--------------|
A|--------------------|--------------------|--------------------|--------------------|
E|--------------------|--------------------|--------------------|--------------------|


[Verse 1]

  Am                   G                    D                    D
e|--------------------|--------------------|---3-------3--------|---3-----3----------|
B|--1--1--------------|--0--0--------------|--------------------|--------------------|
G|--------------------|--------------------|--2-----------------|--2-----2-----------|
D|--2--2--------------|--0--0--------------|--0-----------------|--0-----0-----------|
A|--------------------|--------------------|--------------------|--------------------|
E|--------------------|--------------------|--------------------|--------------------| 

  Am                   G                    D                    D
e|---3-----3----------|---3-----3----------|---3-----3----------|---3-----3----3/4\3-|
B|--1-----1-----------|--0-----0-----------|--------------------|--------------------|
G|--------------------|--------------------|--2-----2-----------|--2-----2----2------|
D|--2-----2-----------|--0-----0-----------|--0-----0-----------|--0-----0----0------| x3
A|--------------------|--------------------|--------------------|--------------------|
E|--------------------|--------------------|--------------------|--------------------| 
 

[Chorus]

  Am                   G                    D                    D
e|--------------------|--------------------|--------------------|--------------------|
B|--1--1--------------|--0--0--------------|--------------------|--------------------|
G|--------------------|--------------------|--2--2--------------|--2--2--------------|
D|--2--2--------------|--0--0--------------|--0--0--------------|--0--0--------------| x2
A|--------------------|--------------------|--------------------|--------------------|
E|--------------------|--------------------|--------------------|--------------------|


[Verse 2]

  Am                   G                    D                    D
e|---3-----3----------|---3-----3----------|---3-----3----------|---3-----3----3/4\3-|
B|--1-----1-----------|--0-----0-----------|--------------------|--------------------|
G|--------------------|--------------------|--2-----2-----------|--2-----2----2------|
D|--2-----2-----------|--0-----0-----------|--0-----0-----------|--0-----0----0------| x4
A|--------------------|--------------------|--------------------|--------------------|
E|--------------------|--------------------|--------------------|--------------------| 


[Chorus]

  Am                   G                    D                    D
e|--------------------|--------------------|--------------------|--------------------|
B|--1--1--------------|--0--0--------------|--------------------|--------------------|
G|--------------------|--------------------|--2--2--------------|--2--2--------------|
D|--2--2--------------|--0--0--------------|--0--0--------------|--0--0--------------| x2
A|--------------------|--------------------|--------------------|--------------------|
E|--------------------|--------------------|--------------------|--------------------|


[Verse 3]

  N.C                   G                    D                    D
e|---------3----------|---3-----3----------|---3-----3----------|---3-----3----3/4\3-|
B|--------------------|--------0-----------|--------------------|--------------------|
G|--------------------|--------------------|--2-----2-----------|--2-----2----2------|
D|--------------------|--0-----0-----------|--0-----0-----------|--0-----0----0------|
A|--------------------|--------------------|--------------------|--------------------|
E|--------------------|--------------------|--------------------|--------------------| 

  Am                   G                    D                    D
e|---3-----3----------|---3-----3----------|---3-----3----------|---3-----3----3/4\3-|
B|--1-----1-----------|--0-----0-----------|--------------------|--------------------|
G|--------------------|--------------------|--2-----2-----------|--2-----2----2------|
D|--2-----2-----------|--0-----0-----------|--0-----0-----------|--0-----0----0------|
A|--------------------|--------------------|--------------------|--------------------|
E|--------------------|--------------------|--------------------|--------------------| 


[Chorus]

  Am                   G                    D                    D
e|--------------------|--------------------|--------------------|--------------------|
B|--1--1--------------|--0--0--------------|--------------------|--------------------|
G|--------------------|--------------------|--2--2--------------|--2--2--------------|
D|--2--2--------------|--0--0--------------|--0--0--------------|--0--0--------------| x2
A|--------------------|--------------------|--------------------|--------------------|
E|--------------------|--------------------|--------------------|--------------------|


[Outro]

  Am                   G                    D                    D
e|--------------------|--------------------|--------------------|--------------------|
B|--1--1--------------|--0--0--------------|--------------------|--------------------|
G|--------------------|--------------------|--2--2--------------|--2--2--------------|
D|--2--2--------------|--0--0--------------|--0--0--------------|--0--0--------------| x2
A|--------------------|--------------------|--------------------|--------------------|
E|--------------------|--------------------|--------------------|--------------------|
            
Submit corrections


        Strong lessons Hard to play? Try these video lessons and learn fast Strong lessons
        
↑ Back to top | Tablatures and chords for acoustic guitar and electric guitar, ukulele, drums are parodies/interpretations of the original songs. You may use it for private study, scholarship, research or language learning purposes only