» » »

London Grammar - Interlude Tabs

Artists:  A B C D E F G H I J K L M N O P Q R S T U V W X Y Z # 

Interlude Tabs

(ver. 1) Click to play this song!
London Grammar
 Rating:
4.3/5 (16 votes)

 Interlude lessons Tabs too difficult? Try these video lessons and learn fast
 
                [Intro]
   Am        (C/Am)  Em                Am          C     Em
e|-------0---------|-----------------|-------0---------|-----------------|
b|-1---1---1---1---|-0---0---0-------|-1---1---1---1---|-0---0---0-------|
g|-2---2---2---0---|-0---0---0-----0-|-2---2---2---0---|-0---0---0-------|
e|-----------------|-------------2---|-----------------|-----------------|
a|---0-------0---0-|-----------------|---0-------0---3-|-----------------|
e|-----------------|---0---0---0-----|-----------------|---0---0---------|

[Verse 1]
   Am        (C/Am)  Am                Em      G         Am      G
e|-------0---------|-----------------|-----------------|-----------------|
b|-1---1---1---1---|-1---1---1-------|-0---0---3---3---|-1---1---0---0---|
g|-2---2---2---0---|-2---2---2---2-0-|-0---0---0---0---|-2---2---0---0---|
e|-----------------|-----------------|-----------------|-----------------|
a|---0-------0---0-|---0---0---0-----|-----------------|---0---0---------|
e|-----------------|-----------------|---0---0---3---3-|-----------3---3-|
   Grey stares beneath the moon...     Tonight I'll be dreaming of you...

   Dm      G         Am      C         Dm      C         Em
e|-----------------|-----------------|-----------------|-----------------|
b|-3---3---0---0---|-1---1---1---1---|-3---3---1---1-3-|-0---0---0-------|
g|-2---2---0---0---|-2---2---0---0---|-2---2---0---0---|-0---0---0-------|
e|---0---0---------|-----------------|---0---0---------|-----------------|
a|-----------------|---0---0---3---3-|-----------3-----|-----------------|
e|-----------3---3-|-----------------|-----------------|---0---0---------|
  People and rhythm instead...        And there you'll be there you'll be inside my head...
  

[Chorus]
   Am        (C/Am)  Em                Am        (C/A)  Em
e|-------0---------|-----------------|-------0---------|-----------------|
b|-1---1---1---1---|-0---0---0-------|-1---1---1---1---|-0---0---0---0---|
g|-2---2---2---0---|-0---0---0-----0-|-2---2---2---0---|-0---0---0---0---|
e|-----------------|-------------2---|-----------------|-----------------|
a|---0-------0---0-|-----------------|---0-------0---0-|-----------------|
e|-----------------|---0---0---0-----|-----------------|---0---0---0---0-|
                    I.. I will dream of you             You'll dream of me too

   Am        (C/Am)  Em                Am          C     Em
e|-------0---------|-----------------|-------0---------|-----------------|
b|-1---1---1---1---|-0---0---0-------|-1---1---1---1---|-0---0---0---0---|
g|-2---2---2---0---|-0---0---0-----0-|-2---2---2---0---|-0---0---0---0---|
e|-----------------|-------------2---|-----------------|-----------------|
a|---0-------0---0-|-----------------|---0-------0---0-|-----------------|
e|-----------------|---0---0---0-----|-----------------|---0---0---0---0-|
                    Your hands they're on my face...    There would be no better place

[Interlude]
   Am        (C/Am)  Em                Am          C     Em
e|-------0---------|-----------------|-------0---------|----------------------|
b|-1---1---1---1---|-0---0---0-------|-1---1---1---1---|-0---0---0---0-0h1p0--|
g|-2---2---2---0---|-0---0---0-----0-|-2---2---2---0---|-0---0---0----------2-|
e|-----------------|-------------2---|-----------------|----------------------|
a|---0-------0---0-|-----------------|---0-------0---3-|----------------------|
e|-----------------|---0---0---0-----|-----------------|---0---0---0----------|

[Verse 2]
   Am                 Am                Am      (C/A)      G
e|-------------------|-----------------|-----------------|---------------------|
b|-1---1---1---3-1-0-|-1---1---1-------|-1---1---1---1---|-0---0---0---0h1p0---|
g|-2---2---2---------|-2---2---2---2-0-|-2---2---0---0---|-0---0---0---------2-|
e|-------------------|-----------------|-----------------|---------------------|
a|---0---0---0-------|---0---0---0-----|---0---0---0---0-|---------------------|
e|-------------------|-----------------|-----------------|---3---3---3---------|
  Some miracle man must have shot me while I wake... I never ran fast enough oh my mistakes...

   D                   Am      G         D       Em       G
e|-------------------|-----------------|-----------------|-----------------|
b|-3---3---3---3-----|-1---1---0---0---|-3---3---0---0---|-0---0---0---0---|
g|-2---2---2---2-----|-2---2---0---0---|-2---2---0---0---|-0---0---0---0---|
e|---0---0---0---0---|-----------------|---0---0---------|-----------------|
a|-------------------|---0---0---------|-----------------|-----------------|
e|-------------------|-----------3---3-|-----------0---0-|---3---3---3-----|
  Would you really want me in the light of day? That very same man shot flaws right through my face...

[Chorus]
   Am         (C/A) Em                Am          (C/A) Em
e|-------0---------|-----------------|-------0---------|-----------------|
b|-1---1---1---1---|-0---0---0-------|-1---1---1---1---|-0---0---0---0---|
g|-2---2---2---0---|-0---0---0-----0-|-2---2---2---0---|-0---0---0---0---|
e|-----------------|-------------2---|-----------------|-----------------|
a|---0-------0---0-|-----------------|---0-------0---0-|-----------------|
e|-----------------|---0---0---0-----|-----------------|---0---0---0---0-|
                    I.. I will dream of you             You'll dream of me too

   Am         (C/A) Em                Am          (C/A) Em
e|-------0---------|-----------------|-------0---------|-----------------|
b|-1---1---1---1---|-0---0---0-------|-1---1---1---1---|-0---0---0---0---|
g|-2---2---2---0---|-0---0---0-----0-|-2---2---2---0---|-0---0---0---0---|
e|-----------------|-------------2---|-----------------|-----------------|
a|---0-------0---0-|-----------------|---0-------0---0-|-----------------|
e|-----------------|---0---0---0-----|-----------------|---0---0---0---0-|
                    Your hands curled 'round my waist...    There would be no better place

[Interlude 2]
   Am        (C/Am)  Em                Am          C     E   C   D   Em
e|-------0---------|-----------------|-------0---------|-------------0---|
b|-1---1---1---1---|-0---0---0-------|-1---1---1---1---|-0---1---3---0---|
g|-2---2---2---0---|-0---0---0-----0-|-2---2---2---0---|-0---0---2-------|
e|-----------------|-------------2---|-----------------|-----------0---2-|
a|---0-------0---0-|-----------------|---0-------0---3-|-------3---------|
e|-----------------|---0---0---0-----|-----------------|---0-------------|

[Bridge]
   Am      C        Em                 Am      C         Em
e|-----------------|-----------------|-----------------|-----------------|
b|-1---1---1---1---|-0---0---0---0---|-1---1---1---1---|-0---------------|
g|-2---2---0---0---|-0---0---0---0---|-2---2---0---0---|-0---------------|
e|-----------------|-----------------|-----------------|-----------------|
a|---0---0---3---3-|-----------------|---0---0---3---3-|-----------------|
e|-----------------|---0---0---0---0-|-----------------|-0---------------|
   Could you have your arms around my... Could you have your arms around... My...

   Am                Em                Am                Em      E
e|-----------------|-----------------|-----------------|-----------------|
b|-1---1---1---1---|-0---0---0---0---|-1---1---1---1---|-0---0---0-------|
g|-2---2---2---2---|-0---0---0---0---|-2---2---2---2---|-0---0---1-------|
e|-----------------|-----------------|-----------------|-----------------|
a|---0---0---0---0-|-----------------|---0---0---0---0-|-----------------|
e|-----------------|---0---0---0---0-|-----------------|---0---0-0-------|
  (vocal rift)

[Outro]
   Am        (C/Am)  Em                Am          C     Em
e|-------0---------|-----------------|-------0---------|-----------------|
b|-1---1---1---1---|-0---0---0-------|-1---1---1---1---|-0---0---0-------|
g|-2---2---2---0---|-0---0---0-----0-|-2---2---2---0---|-0---0---0-------|
e|-----------------|-------------2---|-----------------|-----------------|
a|---0-------0---0-|-----------------|---0-------0---3-|-----------------|
e|-----------------|---0---0---0-----|-----------------|---0---0---------|

            
Submit corrections


        Interlude lessons Hard to play? Try these video lessons and learn fast Interlude lessons
        
↑ Back to top | Tablatures and chords for acoustic guitar and electric guitar, ukulele, drums are parodies/interpretations of the original songs. You may use it for private study, scholarship, research or language learning purposes only