Home » L » Local Natives »

Local Natives - Sun Hands Bass

Artists:  A B C D E F G H I J K L M N O P Q R S T U V W X Y Z # 

Sun Hands Bass

(ver. 1) Click to play this song!
Local Natives
Intro (Keys Part) (4x)

g--------------|
d--------------|
a---5 5 5 5----|
e--------------|

Verse (Main Riff)

g-------------------------------------------------------|
d---3------------3-5--------------3----------3-5--------|
a 35--55-----3-5-----55---------35--55----3-5-----------|
e-------5---------------1------------5----------11-3-1--|
                                                                  (1's not 11's)

Verse ("daunting gesture ....") before chorus

g-----------------------------|
d-----------------------------|
a-----------------------------|
e1-33-1-33-1-33-1----3-3-3-1--|


Chorus

g-----------------------------------------------|
d 5-5-5-8-5-5-5-8-------------------------------|
a-----------------8-8-8-5-8-8-8-5------5------5-|
e---------------------------------7-7-7--7-7-7--|


Breakdown

g-------------------------------------|
d-------------------------------------|
a 5-5-2---/5-5-2---/5-2-2---2-3-5/7---|
e-------------------------------------|


Listen for timing and where/when each part is repeated

For the breakdown he either slides from 2 to 5 or 1 to 5 but if you play that above it 
sound close enough
            
Submit corrections

↑ Back to top | Tablatures and chords for acoustic guitar and electric guitar, ukulele, drums are parodies/interpretations of the original songs. You may use it for private study, scholarship, research or language learning purposes only